  0
SECTION
  2
HEADER
  9
$ACADVER
  1
AC1009
  9
$INSBASE
 10
0.0
 20
0.0
 30
0.0
  9
$EXTMIN
 10
1136.1802988329579875
 20
1245.7694569538639371
 30
0.0
  9
$EXTMAX
 10
1303.1088999999999487
 20
1408.3790011670409967
 30
0.0
  9
$LIMMIN
 10
1269.0984015999999883
 20
1269.0984015999999883
  9
$LIMMAX
 10
1307.0113788599999225
 20
1296.3015984000001026
  9
$ORTHOMODE
 70
     0
  9
$REGENMODE
 70
     1
  9
$FILLMODE
 70
     1
  9
$QTEXTMODE
 70
     0
  9
$MIRRTEXT
 70
     1
  9
$DRAGMODE
 70
     2
  9
$LTSCALE
 40
1.0
  9
$OSMODE
 70
    37
  9
$ATTMODE
 70
     1
  9
$TEXTSIZE
 40
2.5
  9
$TRACEWID
 40
1.0
  9
$TEXTSTYLE
  7
STANDARD
  9
$CLAYER
  8
0
  9
$CELTYPE
  6
BYLAYER
  9
$CECOLOR
 62
   256
  9
$DIMSCALE
 40
1.0
  9
$DIMASZ
 40
2.5
  9
$DIMEXO
 40
0.625
  9
$DIMDLI
 40
3.75
  9
$DIMRND
 40
0.0
  9
$DIMDLE
 40
0.0
  9
$DIMEXE
 40
1.25
  9
$DIMTP
 40
0.0
  9
$DIMTM
 40
0.0
  9
$DIMTXT
 40
2.5
  9
$DIMCEN
 40
2.5
  9
$DIMTSZ
 40
0.0
  9
$DIMTOL
 70
     0
  9
$DIMLIM
 70
     0
  9
$DIMTIH
 70
     0
  9
$DIMTOH
 70
     0
  9
$DIMSE1
 70
     0
  9
$DIMSE2
 70
     0
  9
$DIMTAD
 70
     1
  9
$DIMZIN
 70
     8
  9
$DIMBLK
  1

  9
$DIMASO
 70
     1
  9
$DIMSHO
 70
     1
  9
$DIMPOST
  1

  9
$DIMAPOST
  1

  9
$DIMALT
 70
     0
  9
$DIMALTD
 70
     3
  9
$DIMALTF
 40
0.03937007874016
  9
$DIMLFAC
 40
1.0
  9
$DIMTOFL
 70
     1
  9
$DIMTVP
 40
0.0
  9
$DIMTIX
 70
     0
  9
$DIMSOXD
 70
     0
  9
$DIMSAH
 70
     0
  9
$DIMBLK1
  1

  9
$DIMBLK2
  1

  9
$DIMSTYLE
  2
ISO-25
  9
$DIMCLRD
 70
     0
  9
$DIMCLRE
 70
     0
  9
$DIMCLRT
 70
     0
  9
$DIMTFAC
 40
1.0
  9
$DIMGAP
 40
0.625
  9
$LUNITS
 70
     2
  9
$LUPREC
 70
     4
  9
$SKETCHINC
 40
1.0
  9
$FILLETRAD
 40
10.0
  9
$AUNITS
 70
     0
  9
$AUPREC
 70
     0
  9
$MENU
  1
.
  9
$ELEVATION
 40
0.0
  9
$PELEVATION
 40
0.0
  9
$THICKNESS
 40
0.0
  9
$LIMCHECK
 70
     0
  9
$BLIPMODE
 70
     0
  9
$CHAMFERA
 40
0.0
  9
$CHAMFERB
 40
0.0
  9
$SKPOLY
 70
     0
  9
$TDCREATE
 40
2458564.6176967588253319
  9
$TDUPDATE
 40
2458564.6201967601664364
  9
$TDINDWG
 40
0.0019328819
  9
$TDUSRTIMER
 40
0.0019213079
  9
$USRTIMER
 70
     1
  9
$ANGBASE
 50
0.0
  9
$ANGDIR
 70
     0
  9
$PDMODE
 70
     0
  9
$PDSIZE
 40
0.0
  9
$PLINEWID
 40
0.0
  9
$COORDS
 70
     1
  9
$SPLFRAME
 70
     0
  9
$SPLINETYPE
 70
     6
  9
$SPLINESEGS
 70
     8
  9
$ATTDIA
 70
     1
  9
$ATTREQ
 70
     1
  9
$HANDLING
 70
     1
  9
$HANDSEED
  5
1A47
  9
$SURFTAB1
 70
     6
  9
$SURFTAB2
 70
     6
  9
$SURFTYPE
 70
     6
  9
$SURFU
 70
     6
  9
$SURFV
 70
     6
  9
$UCSNAME
  2

  9
$UCSORG
 10
0.0
 20
0.0
 30
0.0
  9
$UCSXDIR
 10
1.0
 20
0.0
 30
0.0
  9
$UCSYDIR
 10
0.0
 20
1.0
 30
0.0
  9
$PUCSNAME
  2

  9
$PUCSORG
 10
0.0
 20
0.0
 30
0.0
  9
$PUCSXDIR
 10
1.0
 20
0.0
 30
0.0
  9
$PUCSYDIR
 10
0.0
 20
1.0
 30
0.0
  9
$USERI1
 70
     0
  9
$USERI2
 70
     0
  9
$USERI3
 70
     0
  9
$USERI4
 70
     0
  9
$USERI5
 70
     0
  9
$USERR1
 40
0.0
  9
$USERR2
 40
0.0
  9
$USERR3
 40
0.0
  9
$USERR4
 40
0.0
  9
$USERR5
 40
0.0
  9
$WORLDVIEW
 70
     1
  9
$SHADEDGE
 70
     3
  9
$SHADEDIF
 70
    70
  9
$TILEMODE
 70
     1
  9
$MAXACTVP
 70
    64
  9
$PLIMCHECK
 70
     0
  9
$PEXTMIN
 10
1.0000000000000000E+20
 20
1.0000000000000000E+20
 30
1.0000000000000000E+20
  9
$PEXTMAX
 10
-1.0000000000000000E+20
 20
-1.0000000000000000E+20
 30
-1.0000000000000000E+20
  9
$PLIMMIN
 10
0.0
 20
0.0
  9
$PLIMMAX
 10
420.0
 20
297.0
  9
$UNITMODE
 70
     0
  9
$VISRETAIN
 70
     1
  9
$PLINEGEN
 70
     0
  9
$PSLTSCALE
 70
     1
  0
ENDSEC
  0
SECTION
  2
TABLES
  0
TABLE
  2
VPORT
 70
     1
  0
VPORT
  2
*ACTIVE
 70
     0
 10
0.0
 20
0.0
 11
1.0
 21
1.0
 12
-1.2161664360972031
 22
2.9266973220369432
 13
0.0
 23
0.0
 14
10.0
 24
10.0
 15
10.0
 25
10.0
 16
0.0
 26
0.0
 36
115.9599145005672938
 17
1286.1036376953120453
 27
1282.7000122070310226
 37
0.0
 40
45.8510453171355081
 41
1.8976458546571131
 42
50.0
 43
0.0
 44
0.0
 50
0.0
 51
0.0
 71
     0
 72
   100
 73
     1
 74
     3
 75
     0
 76
     0
 77
     0
 78
     0
  0
ENDTAB
  0
TABLE
  2
LTYPE
 70
     2
  0
LTYPE
  2
CONTINUOUS
 70
     0
  3
Solid line
 72
    65
 73
     0
 40
0.0
  0
ENDTAB
  0
TABLE
  2
LAYER
 70
    10
  0
LAYER
  2
0
 70
     0
 62
     7
  6
CONTINUOUS
  0
LAYER
  2
TOPLAYER
 70
     0
 62
     1
  6
CONTINUOUS
  0
LAYER
  2
BOTTOMLAYER
 70
     0
 62
     5
  6
CONTINUOUS
  0
LAYER
  2
MECHANICAL1
 70
     0
 62
     6
  6
CONTINUOUS
  0
LAYER
  2
MULTILAYER
 70
     0
 62
     9
  6
CONTINUOUS
  0
LAYER
  2
TOPOVERLAY
 70
     0
 62
     2
  6
CONTINUOUS
  0
LAYER
  2
TOPPASTE
 70
     0
 62
     8
  6
CONTINUOUS
  0
LAYER
  2
BOTTOMPASTE
 70
     0
 62
    16
  6
CONTINUOUS
  0
LAYER
  2
TOPSOLDER
 70
     0
 62
   216
  6
CONTINUOUS
  0
LAYER
  2
BOTTOMSOLDER
 70
     0
 62
     6
  6
CONTINUOUS
  0
ENDTAB
  0
TABLE
  2
STYLE
 70
     2
  0
STYLE
  2
STANDARD
 70
     0
 40
0.0
 41
1.0
 50
0.0
 71
     0
 42
2.5
  3
txt
  4

  0
STYLE
  2
ANNOTATIVE
 70
     0
 40
0.0
 41
1.0
 50
0.0
 71
     0
 42
0.2
  3
txt
  4

  0
ENDTAB
  0
TABLE
  2
VIEW
 70
     0
  0
ENDTAB
  0
TABLE
  2
UCS
 70
     0
  0
ENDTAB
  0
TABLE
  2
APPID
 70
     5
  0
APPID
  2
ACAD
 70
     0
  0
APPID
  2
ACADANNOTATIVE
 70
     0
  0
APPID
  2
ACAD_EXEMPT_FROM_CAD_STANDARDS
 70
     0
  0
APPID
  2
ACAD_NAV_VCDISPLAY
 70
     0
  0
APPID
  2
ACAD_MLEADERVER
 70
     0
  0
ENDTAB
  0
TABLE
  2
DIMSTYLE
 70
     4
  0
DIMSTYLE
  2
STANDARD
 70
     0
  3

  4

  5

  6

  7

 40
1.0
 41
0.18
 42
0.0625
 43
0.38
 44
0.18
 45
0.0
 46
0.0
 47
0.0
 48
0.0
140
0.18
141
0.09
142
0.0
143
25.3999999999999986
144
1.0
145
0.0
146
1.0
147
0.09
 71
     0
 72
     0
 73
     1
 74
     1
 75
     0
 76
     0
 77
     0
 78
     0
170
     0
171
     2
172
     0
173
     0
174
     0
175
     0
176
     0
177
     0
178
     0
  0
DIMSTYLE
  2
ANNOTATIVE
 70
     0
  3

  4

  5

  6

  7

 40
1.0
 41
0.18
 42
0.0625
 43
0.38
 44
0.18
 45
0.0
 46
0.0
 47
0.0
 48
0.0
140
0.18
141
0.09
142
0.0
143
25.3999999999999986
144
1.0
145
0.0
146
1.0
147
0.09
 71
     0
 72
     0
 73
     1
 74
     1
 75
     0
 76
     0
 77
     0
 78
     0
170
     0
171
     2
172
     0
173
     0
174
     0
175
     0
176
     0
177
     0
178
     0
  0
DIMSTYLE
  2
ISO-25
 70
     0
  3

  4

  5

  6

  7

 40
1.0
 41
2.5
 42
0.625
 43
3.75
 44
1.25
 45
0.0
 46
0.0
 47
0.0
 48
0.0
140
2.5
141
2.5
142
0.0
143
0.03937007874016
144
1.0
145
0.0
146
1.0
147
0.625
 71
     0
 72
     0
 73
     0
 74
     0
 75
     0
 76
     0
 77
     1
 78
     8
170
     0
171
     3
172
     1
173
     0
174
     0
175
     0
176
     0
177
     0
178
     0
  0
ENDTAB
  0
ENDSEC
  0
SECTION
  2
BLOCKS
  0
BLOCK
  8
0
  2
$MODEL_SPACE
 70
     0
 10
0.0
 20
0.0
 30
0.0
  3
$MODEL_SPACE
  1

  0
ENDBLK
  5
AB8
  8
0
  0
BLOCK
 67
     1
  8
0
  2
$PAPER_SPACE
 70
     0
 10
0.0
 20
0.0
 30
0.0
  3
$PAPER_SPACE
  1

  0
ENDBLK
  5
AB4
 67
     1
  8
0
  0
ENDSEC
  0
SECTION
  2
ENTITIES
  0
POLYLINE
  5
77
  8
TOPOVERLAY
 66
     1
 10
0.0
 20
0.0
 30
0.0
 40
0.254
 41
0.254
  0
VERTEX
  5
12C6
  8
TOPOVERLAY
 10
1271.0414000000000669
 20
1275.9435187199999291
 30
0.0
  0
VERTEX
  5
12C7
  8
TOPOVERLAY
 10
1277.7596390399999109
 20
1275.9435187199999291
 30
0.0
  0
SEQEND
  5
12C8
  8
TOPOVERLAY
  0
POLYLINE
  5
78
  8
TOPOVERLAY
 66
     1
 10
0.0
 20
0.0
 30
0.0
 70
     1
 40
0.127
 41
0.127
  0
VERTEX
  5
12C9
  8
TOPOVERLAY
 10
1270.9779000000000906
 20
1275.9435187199999291
 30
0.0
 42
1.0
  0
VERTEX
  5
12CA
  8
TOPOVERLAY
 10
1271.1049000000000433
 20
1275.9435187199999291
 30
0.0
 42
1.0
  0
SEQEND
  5
12CB
  8
TOPOVERLAY
  0
POLYLINE
  5
79
  8
TOPOVERLAY
 66
     1
 10
0.0
 20
0.0
 30
0.0
 70
     1
 40
0.127
 41
0.127
  0
VERTEX
  5
12CC
  8
TOPOVERLAY
 10
1277.6961390399999345
 20
1275.9435187199999291
 30
0.0
 42
1.0
  0
VERTEX
  5
12CD
  8
TOPOVERLAY
 10
1277.8231390399998872
 20
1275.9435187199999291
 30
0.0
 42
1.0
  0
SEQEND
  5
12CE
  8
TOPOVERLAY
  0
POLYLINE
  5
7A
  8
TOPOVERLAY
 66
     1
 10
0.0
 20
0.0
 30
0.0
 40
0.254
 41
0.254
  0
VERTEX
  5
12CF
  8
TOPOVERLAY
 10
1277.7596390399999109
 20
1272.743118719999984
 30
0.0
  0
VERTEX
  5
12D0
  8
TOPOVERLAY
 10
1277.7596390399999109
 20
1275.9435187199999291
 30
0.0
  0
SEQEND
  5
12D1
  8
TOPOVERLAY
  0
POLYLINE
  5
7B
  8
TOPOVERLAY
 66
     1
 10
0.0
 20
0.0
 30
0.0
 70
     1
 40
0.127
 41
0.127
  0
VERTEX
  5
12D2
  8
TOPOVERLAY
 10
1277.6961390399999345
 20
1272.743118719999984
 30
0.0
 42
1.0
  0
VERTEX
  5
12D3
  8
TOPOVERLAY
 10
1277.8231390399998872
 20
1272.743118719999984
 30
0.0
 42
1.0
  0
SEQEND
  5
12D4
  8
TOPOVERLAY
  0
POLYLINE
  5
7C
  8
TOPOVERLAY
 66
     1
 10
0.0
 20
0.0
 30
0.0
 70
     1
 40
0.127
 41
0.127
  0
VERTEX
  5
12D5
  8
TOPOVERLAY
 10
1277.6961390399999345
 20
1275.9435187199999291
 30
0.0
 42
1.0
  0
VERTEX
  5
12D6
  8
TOPOVERLAY
 10
1277.8231390399998872
 20
1275.9435187199999291
 30
0.0
 42
1.0
  0
SEQEND
  5
12D7
  8
TOPOVERLAY
  0
POLYLINE
  5
7D
  8
TOPOVERLAY
 66
     1
 10
0.0
 20
0.0
 30
0.0
 40
0.254
 41
0.254
  0
VERTEX
  5
12D8
  8
TOPOVERLAY
 10
1271.0414000000000669
 20
1272.743118719999984
 30
0.0
  0
VERTEX
  5
12D9
  8
TOPOVERLAY
 10
1277.7596390399999109
 20
1272.743118719999984
 30
0.0
  0
SEQEND
  5
12DA
  8
TOPOVERLAY
  0
POLYLINE
  5
7E
  8
TOPOVERLAY
 66
     1
 10
0.0
 20
0.0
 30
0.0
 70
     1
 40
0.127
 41
0.127
  0
VERTEX
  5
12DB
  8
TOPOVERLAY
 10
1270.9779000000000906
 20
1272.743118719999984
 30
0.0
 42
1.0
  0
VERTEX
  5
12DC
  8
TOPOVERLAY
 10
1271.1049000000000433
 20
1272.743118719999984
 30
0.0
 42
1.0
  0
SEQEND
  5
12DD
  8
TOPOVERLAY
  0
POLYLINE
  5
7F
  8
TOPOVERLAY
 66
     1
 10
0.0
 20
0.0
 30
0.0
 70
     1
 40
0.127
 41
0.127
  0
VERTEX
  5
12DE
  8
TOPOVERLAY
 10
1277.6961390399999345
 20
1272.743118719999984
 30
0.0
 42
1.0
  0
VERTEX
  5
12DF
  8
TOPOVERLAY
 10
1277.8231390399998872
 20
1272.743118719999984
 30
0.0
 42
1.0
  0
SEQEND
  5
12E0
  8
TOPOVERLAY
  0
POLYLINE
  5
80
  8
TOPOVERLAY
 66
     1
 10
0.0
 20
0.0
 30
0.0
 40
0.254
 41
0.254
  0
VERTEX
  5
12E1
  8
TOPOVERLAY
 10
1271.0414000000000669
 20
1272.743118719999984
 30
0.0
  0
VERTEX
  5
12E2
  8
TOPOVERLAY
 10
1271.0414000000000669
 20
1275.9435187199999291
 30
0.0
  0
SEQEND
  5
12E3
  8
TOPOVERLAY
  0
POLYLINE
  5
81
  8
TOPOVERLAY
 66
     1
 10
0.0
 20
0.0
 30
0.0
 70
     1
 40
0.127
 41
0.127
  0
VERTEX
  5
12E4
  8
TOPOVERLAY
 10
1270.9779000000000906
 20
1272.743118719999984
 30
0.0
 42
1.0
  0
VERTEX
  5
12E5
  8
TOPOVERLAY
 10
1271.1049000000000433
 20
1272.743118719999984
 30
0.0
 42
1.0
  0
SEQEND
  5
12E6
  8
TOPOVERLAY
  0
POLYLINE
  5
82
  8
TOPOVERLAY
 66
     1
 10
0.0
 20
0.0
 30
0.0
 70
     1
 40
0.127
 41
0.127
  0
VERTEX
  5
12E7
  8
TOPOVERLAY
 10
1270.9779000000000906
 20
1275.9435187199999291
 30
0.0
 42
1.0
  0
VERTEX
  5
12E8
  8
TOPOVERLAY
 10
1271.1049000000000433
 20
1275.9435187199999291
 30
0.0
 42
1.0
  0
SEQEND
  5
12E9
  8
TOPOVERLAY
  0
POLYLINE
  5
83
  8
TOPOVERLAY
 66
     1
 10
0.0
 20
0.0
 30
0.0
 40
0.2032
 41
0.2032
  0
VERTEX
  5
12EA
  8
TOPOVERLAY
 10
1302.2453000000000429
 20
1295.4000000000000909
 30
0.0
  0
VERTEX
  5
12EB
  8
TOPOVERLAY
 10
1303.0072999999999865
 20
1295.4000000000000909
 30
0.0
  0
SEQEND
  5
12EC
  8
TOPOVERLAY
  0
POLYLINE
  5
84
  8
TOPOVERLAY
 66
     1
 10
0.0
 20
0.0
 30
0.0
 70
     1
 40
0.1016
 41
0.1016
  0
VERTEX
  5
12ED
  8
TOPOVERLAY
 10
1302.1945000000000618
 20
1295.4000000000000909
 30
0.0
 42
1.0
  0
VERTEX
  5
12EE
  8
TOPOVERLAY
 10
1302.296100000000024
 20
1295.4000000000000909
 30
0.0
 42
1.0
  0
SEQEND
  5
12EF
  8
TOPOVERLAY
  0
POLYLINE
  5
85
  8
TOPOVERLAY
 66
     1
 10
0.0
 20
0.0
 30
0.0
 70
     1
 40
0.1016
 41
0.1016
  0
VERTEX
  5
12F0
  8
TOPOVERLAY
 10
1302.9565000000000055
 20
1295.4000000000000909
 30
0.0
 42
1.0
  0
VERTEX
  5
12F1
  8
TOPOVERLAY
 10
1303.0580999999999676
 20
1295.4000000000000909
 30
0.0
 42
1.0
  0
SEQEND
  5
12F2
  8
TOPOVERLAY
  0
POLYLINE
  5
86
  8
TOPOVERLAY
 66
     1
 10
0.0
 20
0.0
 30
0.0
 40
0.2032
 41
0.2032
  0
VERTEX
  5
12F3
  8
TOPOVERLAY
 10
1303.0072999999999865
 20
1270.0
 30
0.0
  0
VERTEX
  5
12F4
  8
TOPOVERLAY
 10
1303.0072999999999865
 20
1295.4000000000000909
 30
0.0
  0
SEQEND
  5
12F5
  8
TOPOVERLAY
  0
POLYLINE
  5
87
  8
TOPOVERLAY
 66
     1
 10
0.0
 20
0.0
 30
0.0
 70
     1
 40
0.1016
 41
0.1016
  0
VERTEX
  5
12F6
  8
TOPOVERLAY
 10
1302.9565000000000055
 20
1270.0
 30
0.0
 42
1.0
  0
VERTEX
  5
12F7
  8
TOPOVERLAY
 10
1303.0580999999999676
 20
1270.0
 30
0.0
 42
1.0
  0
SEQEND
  5
12F8
  8
TOPOVERLAY
  0
POLYLINE
  5
88
  8
TOPOVERLAY
 66
     1
 10
0.0
 20
0.0
 30
0.0
 70
     1
 40
0.1016
 41
0.1016
  0
VERTEX
  5
12F9
  8
TOPOVERLAY
 10
1302.9565000000000055
 20
1295.4000000000000909
 30
0.0
 42
1.0
  0
VERTEX
  5
12FA
  8
TOPOVERLAY
 10
1303.0580999999999676
 20
1295.4000000000000909
 30
0.0
 42
1.0
  0
SEQEND
  5
12FB
  8
TOPOVERLAY
  0
POLYLINE
  5
89
  8
TOPOVERLAY
 66
     1
 10
0.0
 20
0.0
 30
0.0
 40
0.2032
 41
0.2032
  0
VERTEX
  5
12FC
  8
TOPOVERLAY
 10
1302.2453000000000429
 20
1270.0
 30
0.0
  0
VERTEX
  5
12FD
  8
TOPOVERLAY
 10
1303.0072999999999865
 20
1270.0
 30
0.0
  0
SEQEND
  5
12FE
  8
TOPOVERLAY
  0
POLYLINE
  5
8A
  8
TOPOVERLAY
 66
     1
 10
0.0
 20
0.0
 30
0.0
 70
     1
 40
0.1016
 41
0.1016
  0
VERTEX
  5
12FF
  8
TOPOVERLAY
 10
1302.1945000000000618
 20
1270.0
 30
0.0
 42
1.0
  0
VERTEX
  5
1300
  8
TOPOVERLAY
 10
1302.296100000000024
 20
1270.0
 30
0.0
 42
1.0
  0
SEQEND
  5
1301
  8
TOPOVERLAY
  0
POLYLINE
  5
8B
  8
TOPOVERLAY
 66
     1
 10
0.0
 20
0.0
 30
0.0
 70
     1
 40
0.1016
 41
0.1016
  0
VERTEX
  5
1302
  8
TOPOVERLAY
 10
1302.9565000000000055
 20
1270.0
 30
0.0
 42
1.0
  0
VERTEX
  5
1303
  8
TOPOVERLAY
 10
1303.0580999999999676
 20
1270.0
 30
0.0
 42
1.0
  0
SEQEND
  5
1304
  8
TOPOVERLAY
  0
POLYLINE
  5
8C
  8
TOPOVERLAY
 66
     1
 10
0.0
 20
0.0
 30
0.0
 40
0.2032
 41
0.2032
  0
VERTEX
  5
1305
  8
TOPOVERLAY
 10
1301.1784999999999854
 20
1273.2511999999999261
 30
0.0
  0
VERTEX
  5
1306
  8
TOPOVERLAY
 10
1303.0072999999999865
 20
1273.2511999999999261
 30
0.0
  0
SEQEND
  5
1307
  8
TOPOVERLAY
  0
POLYLINE
  5
8D
  8
TOPOVERLAY
 66
     1
 10
0.0
 20
0.0
 30
0.0
 70
     1
 40
0.1016
 41
0.1016
  0
VERTEX
  5
1308
  8
TOPOVERLAY
 10
1301.1277000000000044
 20
1273.2511999999999261
 30
0.0
 42
1.0
  0
VERTEX
  5
1309
  8
TOPOVERLAY
 10
1301.2292999999999665
 20
1273.2511999999999261
 30
0.0
 42
1.0
  0
SEQEND
  5
130A
  8
TOPOVERLAY
  0
POLYLINE
  5
8E
  8
TOPOVERLAY
 66
     1
 10
0.0
 20
0.0
 30
0.0
 70
     1
 40
0.1016
 41
0.1016
  0
VERTEX
  5
130B
  8
TOPOVERLAY
 10
1302.9565000000000055
 20
1273.2511999999999261
 30
0.0
 42
1.0
  0
VERTEX
  5
130C
  8
TOPOVERLAY
 10
1303.0580999999999676
 20
1273.2511999999999261
 30
0.0
 42
1.0
  0
SEQEND
  5
130D
  8
TOPOVERLAY
  0
POLYLINE
  5
8F
  8
TOPOVERLAY
 66
     1
 10
0.0
 20
0.0
 30
0.0
 40
0.2032
 41
0.2032
  0
VERTEX
  5
130E
  8
TOPOVERLAY
 10
1301.7373000000000047
 20
1291.5899999999999181
 30
0.0
  0
VERTEX
  5
130F
  8
TOPOVERLAY
 10
1303.0072999999999865
 20
1291.5899999999999181
 30
0.0
  0
SEQEND
  5
1310
  8
TOPOVERLAY
  0
POLYLINE
  5
90
  8
TOPOVERLAY
 66
     1
 10
0.0
 20
0.0
 30
0.0
 70
     1
 40
0.1016
 41
0.1016
  0
VERTEX
  5
1311
  8
TOPOVERLAY
 10
1301.6865000000000236
 20
1291.5899999999999181
 30
0.0
 42
1.0
  0
VERTEX
  5
1312
  8
TOPOVERLAY
 10
1301.7880999999999858
 20
1291.5899999999999181
 30
0.0
 42
1.0
  0
SEQEND
  5
1313
  8
TOPOVERLAY
  0
POLYLINE
  5
91
  8
TOPOVERLAY
 66
     1
 10
0.0
 20
0.0
 30
0.0
 70
     1
 40
0.1016
 41
0.1016
  0
VERTEX
  5
1314
  8
TOPOVERLAY
 10
1302.9565000000000055
 20
1291.5899999999999181
 30
0.0
 42
1.0
  0
VERTEX
  5
1315
  8
TOPOVERLAY
 10
1303.0580999999999676
 20
1291.5899999999999181
 30
0.0
 42
1.0
  0
SEQEND
  5
1316
  8
TOPOVERLAY
  0
POLYLINE
  5
92
  8
TOPOVERLAY
 66
     1
 10
0.0
 20
0.0
 30
0.0
 40
0.2032
 41
0.2032
  0
VERTEX
  5
1317
  8
TOPOVERLAY
 10
1288.8468000000000302
 20
1291.5899999999999181
 30
0.0
  0
VERTEX
  5
1318
  8
TOPOVERLAY
 10
1301.7373000000000047
 20
1291.5899999999999181
 30
0.0
  0
SEQEND
  5
1319
  8
TOPOVERLAY
  0
POLYLINE
  5
93
  8
TOPOVERLAY
 66
     1
 10
0.0
 20
0.0
 30
0.0
 70
     1
 40
0.1016
 41
0.1016
  0
VERTEX
  5
131A
  8
TOPOVERLAY
 10
1288.7960000000000491
 20
1291.5899999999999181
 30
0.0
 42
1.0
  0
VERTEX
  5
131B
  8
TOPOVERLAY
 10
1288.8976000000000113
 20
1291.5899999999999181
 30
0.0
 42
1.0
  0
SEQEND
  5
131C
  8
TOPOVERLAY
  0
POLYLINE
  5
94
  8
TOPOVERLAY
 66
     1
 10
0.0
 20
0.0
 30
0.0
 70
     1
 40
0.1016
 41
0.1016
  0
VERTEX
  5
131D
  8
TOPOVERLAY
 10
1301.6865000000000236
 20
1291.5899999999999181
 30
0.0
 42
1.0
  0
VERTEX
  5
131E
  8
TOPOVERLAY
 10
1301.7880999999999858
 20
1291.5899999999999181
 30
0.0
 42
1.0
  0
SEQEND
  5
131F
  8
TOPOVERLAY
  0
POLYLINE
  5
95
  8
TOPOVERLAY
 66
     1
 10
0.0
 20
0.0
 30
0.0
 40
0.2032
 41
0.2032
  0
VERTEX
  5
1320
  8
TOPOVERLAY
 10
1288.8468000000000302
 20
1273.2511999999999261
 30
0.0
  0
VERTEX
  5
1321
  8
TOPOVERLAY
 10
1288.8468000000000302
 20
1291.5899999999999181
 30
0.0
  0
SEQEND
  5
1322
  8
TOPOVERLAY
  0
POLYLINE
  5
96
  8
TOPOVERLAY
 66
     1
 10
0.0
 20
0.0
 30
0.0
 70
     1
 40
0.1016
 41
0.1016
  0
VERTEX
  5
1323
  8
TOPOVERLAY
 10
1288.7960000000000491
 20
1273.2511999999999261
 30
0.0
 42
1.0
  0
VERTEX
  5
1324
  8
TOPOVERLAY
 10
1288.8976000000000113
 20
1273.2511999999999261
 30
0.0
 42
1.0
  0
SEQEND
  5
1325
  8
TOPOVERLAY
  0
POLYLINE
  5
97
  8
TOPOVERLAY
 66
     1
 10
0.0
 20
0.0
 30
0.0
 70
     1
 40
0.1016
 41
0.1016
  0
VERTEX
  5
1326
  8
TOPOVERLAY
 10
1288.7960000000000491
 20
1291.5899999999999181
 30
0.0
 42
1.0
  0
VERTEX
  5
1327
  8
TOPOVERLAY
 10
1288.8976000000000113
 20
1291.5899999999999181
 30
0.0
 42
1.0
  0
SEQEND
  5
1328
  8
TOPOVERLAY
  0
POLYLINE
  5
98
  8
TOPOVERLAY
 66
     1
 10
0.0
 20
0.0
 30
0.0
 40
0.2032
 41
0.2032
  0
VERTEX
  5
1329
  8
TOPOVERLAY
 10
1288.8468000000000302
 20
1273.2511999999999261
 30
0.0
  0
VERTEX
  5
132A
  8
TOPOVERLAY
 10
1301.1784999999999854
 20
1273.2511999999999261
 30
0.0
  0
SEQEND
  5
132B
  8
TOPOVERLAY
  0
POLYLINE
  5
99
  8
TOPOVERLAY
 66
     1
 10
0.0
 20
0.0
 30
0.0
 70
     1
 40
0.1016
 41
0.1016
  0
VERTEX
  5
132C
  8
TOPOVERLAY
 10
1288.7960000000000491
 20
1273.2511999999999261
 30
0.0
 42
1.0
  0
VERTEX
  5
132D
  8
TOPOVERLAY
 10
1288.8976000000000113
 20
1273.2511999999999261
 30
0.0
 42
1.0
  0
SEQEND
  5
132E
  8
TOPOVERLAY
  0
POLYLINE
  5
9A
  8
TOPOVERLAY
 66
     1
 10
0.0
 20
0.0
 30
0.0
 70
     1
 40
0.1016
 41
0.1016
  0
VERTEX
  5
132F
  8
TOPOVERLAY
 10
1301.1277000000000044
 20
1273.2511999999999261
 30
0.0
 42
1.0
  0
VERTEX
  5
1330
  8
TOPOVERLAY
 10
1301.2292999999999665
 20
1273.2511999999999261
 30
0.0
 42
1.0
  0
SEQEND
  5
1331
  8
TOPOVERLAY
  0
POLYLINE
  5
9B
  8
TOPOVERLAY
 66
     1
 10
0.0
 20
0.0
 30
0.0
 40
0.2032
 41
0.2032
  0
VERTEX
  5
1332
  8
TOPOVERLAY
 10
1269.9873000000000047
 20
1270.0
 30
0.0
  0
VERTEX
  5
1333
  8
TOPOVERLAY
 10
1274.5592999999998938
 20
1270.0
 30
0.0
  0
SEQEND
  5
1334
  8
TOPOVERLAY
  0
POLYLINE
  5
9C
  8
TOPOVERLAY
 66
     1
 10
0.0
 20
0.0
 30
0.0
 70
     1
 40
0.1016
 41
0.1016
  0
VERTEX
  5
1335
  8
TOPOVERLAY
 10
1269.9365000000000236
 20
1270.0
 30
0.0
 42
1.0
  0
VERTEX
  5
1336
  8
TOPOVERLAY
 10
1270.0380999999999858
 20
1270.0
 30
0.0
 42
1.0
  0
SEQEND
  5
1337
  8
TOPOVERLAY
  0
POLYLINE
  5
9D
  8
TOPOVERLAY
 66
     1
 10
0.0
 20
0.0
 30
0.0
 70
     1
 40
0.1016
 41
0.1016
  0
VERTEX
  5
1338
  8
TOPOVERLAY
 10
1274.5084999999999127
 20
1270.0
 30
0.0
 42
1.0
  0
VERTEX
  5
1339
  8
TOPOVERLAY
 10
1274.6101000000001022
 20
1270.0
 30
0.0
 42
1.0
  0
SEQEND
  5
133A
  8
TOPOVERLAY
  0
POLYLINE
  5
9E
  8
TOPOVERLAY
 66
     1
 10
0.0
 20
0.0
 30
0.0
 40
0.2032
 41
0.2032
  0
VERTEX
  5
133B
  8
TOPOVERLAY
 10
1269.9873000000000047
 20
1295.4000000000000909
 30
0.0
  0
VERTEX
  5
133C
  8
TOPOVERLAY
 10
1274.5592999999998938
 20
1295.4000000000000909
 30
0.0
  0
SEQEND
  5
133D
  8
TOPOVERLAY
  0
POLYLINE
  5
9F
  8
TOPOVERLAY
 66
     1
 10
0.0
 20
0.0
 30
0.0
 70
     1
 40
0.1016
 41
0.1016
  0
VERTEX
  5
133E
  8
TOPOVERLAY
 10
1269.9365000000000236
 20
1295.4000000000000909
 30
0.0
 42
1.0
  0
VERTEX
  5
133F
  8
TOPOVERLAY
 10
1270.0380999999999858
 20
1295.4000000000000909
 30
0.0
 42
1.0
  0
SEQEND
  5
1340
  8
TOPOVERLAY
  0
POLYLINE
  5
A0
  8
TOPOVERLAY
 66
     1
 10
0.0
 20
0.0
 30
0.0
 70
     1
 40
0.1016
 41
0.1016
  0
VERTEX
  5
1341
  8
TOPOVERLAY
 10
1274.5084999999999127
 20
1295.4000000000000909
 30
0.0
 42
1.0
  0
VERTEX
  5
1342
  8
TOPOVERLAY
 10
1274.6101000000001022
 20
1295.4000000000000909
 30
0.0
 42
1.0
  0
SEQEND
  5
1343
  8
TOPOVERLAY
  0
POLYLINE
  5
A1
  8
TOPSOLDER
 66
     1
 10
0.0
 20
0.0
 30
0.0
 70
     1
 40
0.1016
 41
0.1016
  0
VERTEX
  5
1344
  8
TOPSOLDER
 10
1300.3149000000000797
 20
1293.9775999999999385
 30
0.0
 42
1.0
  0
VERTEX
  5
1345
  8
TOPSOLDER
 10
1300.4165000000000418
 20
1293.9775999999999385
 30
0.0
 42
1.0
  0
SEQEND
  5
1346
  8
TOPSOLDER
  0
POLYLINE
  5
A3
  8
TOPPASTE
 66
     1
 10
0.0
 20
0.0
 30
0.0
 40
0.8000009399999999
 41
0.8000009399999999
  0
VERTEX
  5
1347
  8
TOPPASTE
 10
1270.3999991999999111
 20
1271.9049999999999727
 30
0.0
  0
VERTEX
  5
1348
  8
TOPPASTE
 10
1269.6000008000000889
 20
1271.9049999999999727
 30
0.0
  0
SEQEND
  5
1349
  8
TOPPASTE
  0
POLYLINE
  5
A4
  8
TOPPASTE
 66
     1
 10
0.0
 20
0.0
 30
0.0
 70
     1
 40
0.3999992
 41
0.3999992
  0
VERTEX
  5
134A
  8
TOPPASTE
 10
1270.1999995999999555
 20
1271.9049999999999727
 30
0.0
 42
1.0
  0
VERTEX
  5
134B
  8
TOPPASTE
 10
1270.599998800000094
 20
1271.9049999999999727
 30
0.0
 42
1.0
  0
SEQEND
  5
134C
  8
TOPPASTE
  0
POLYLINE
  5
A5
  8
TOPPASTE
 66
     1
 10
0.0
 20
0.0
 30
0.0
 70
     1
 40
0.3999992
 41
0.3999992
  0
VERTEX
  5
134D
  8
TOPPASTE
 10
1269.400001199999906
 20
1271.9049999999999727
 30
0.0
 42
1.0
  0
VERTEX
  5
134E
  8
TOPPASTE
 10
1269.8000004000000445
 20
1271.9049999999999727
 30
0.0
 42
1.0
  0
SEQEND
  5
134F
  8
TOPPASTE
  0
POLYLINE
  5
A6
  8
TOPSOLDER
 66
     1
 10
0.0
 20
0.0
 30
0.0
 40
1.003200939999999
 41
1.003200939999999
  0
VERTEX
  5
1350
  8
TOPSOLDER
 10
1270.3999991999999111
 20
1271.9049999999999727
 30
0.0
  0
VERTEX
  5
1351
  8
TOPSOLDER
 10
1269.6000008000000889
 20
1271.9049999999999727
 30
0.0
  0
SEQEND
  5
1352
  8
TOPSOLDER
  0
POLYLINE
  5
A7
  8
TOPSOLDER
 66
     1
 10
0.0
 20
0.0
 30
0.0
 70
     1
 40
0.5015992000000002
 41
0.5015992000000002
  0
VERTEX
  5
1353
  8
TOPSOLDER
 10
1270.1491995999999745
 20
1271.9049999999999727
 30
0.0
 42
1.0
  0
VERTEX
  5
1354
  8
TOPSOLDER
 10
1270.6507988000000751
 20
1271.9049999999999727
 30
0.0
 42
1.0
  0
SEQEND
  5
1355
  8
TOPSOLDER
  0
POLYLINE
  5
A8
  8
TOPSOLDER
 66
     1
 10
0.0
 20
0.0
 30
0.0
 70
     1
 40
0.5015992000000002
 41
0.5015992000000002
  0
VERTEX
  5
1356
  8
TOPSOLDER
 10
1269.3492011999999249
 20
1271.9049999999999727
 30
0.0
 42
1.0
  0
VERTEX
  5
1357
  8
TOPSOLDER
 10
1269.8508004000000255
 20
1271.9049999999999727
 30
0.0
 42
1.0
  0
SEQEND
  5
1358
  8
TOPSOLDER
  0
POLYLINE
  5
A9
  8
TOPLAYER
 66
     1
 10
0.0
 20
0.0
 30
0.0
 40
0.8000009399999999
 41
0.8000009399999999
  0
VERTEX
  5
1359
  8
TOPLAYER
 10
1270.3999991999999111
 20
1271.9049999999999727
 30
0.0
  0
VERTEX
  5
135A
  8
TOPLAYER
 10
1269.6000008000000889
 20
1271.9049999999999727
 30
0.0
  0
SEQEND
  5
135B
  8
TOPLAYER
  0
POLYLINE
  5
AA
  8
TOPLAYER
 66
     1
 10
0.0
 20
0.0
 30
0.0
 70
     1
 40
0.3999992
 41
0.3999992
  0
VERTEX
  5
135C
  8
TOPLAYER
 10
1270.1999995999999555
 20
1271.9049999999999727
 30
0.0
 42
1.0
  0
VERTEX
  5
135D
  8
TOPLAYER
 10
1270.599998800000094
 20
1271.9049999999999727
 30
0.0
 42
1.0
  0
SEQEND
  5
135E
  8
TOPLAYER
  0
POLYLINE
  5
AB
  8
TOPLAYER
 66
     1
 10
0.0
 20
0.0
 30
0.0
 70
     1
 40
0.3999992
 41
0.3999992
  0
VERTEX
  5
135F
  8
TOPLAYER
 10
1269.400001199999906
 20
1271.9049999999999727
 30
0.0
 42
1.0
  0
VERTEX
  5
1360
  8
TOPLAYER
 10
1269.8000004000000445
 20
1271.9049999999999727
 30
0.0
 42
1.0
  0
SEQEND
  5
1361
  8
TOPLAYER
  0
SOLID
  5
AC
  8
TOPPASTE
 10
1273.4846006000000216
 20
1294.2396009999999933
 30
0.0
 11
1274.0845993999998882
 21
1294.2396009999999933
 31
0.0
 12
1273.4846006000000216
 22
1295.2395989999999983
 32
0.0
 13
1274.0845993999998882
 23
1295.2395989999999983
 33
0.0
  0
SOLID
  5
AD
  8
TOPSOLDER
 10
1273.3830006000000594
 20
1294.1380010000000311
 30
0.0
 11
1274.1861994000000777
 21
1294.1380010000000311
 31
0.0
 12
1273.3830006000000594
 22
1295.3411989999999605
 32
0.0
 13
1274.1861994000000777
 23
1295.3411989999999605
 33
0.0
  0
SOLID
  5
AE
  8
TOPLAYER
 10
1273.4846006000000216
 20
1294.2396009999999933
 30
0.0
 11
1274.0845993999998882
 21
1294.2396009999999933
 31
0.0
 12
1273.4846006000000216
 22
1295.2395989999999983
 32
0.0
 13
1274.0845993999998882
 23
1295.2395989999999983
 33
0.0
  0
SOLID
  5
AF
  8
TOPPASTE
 10
1272.2146006000000398
 20
1294.2396009999999933
 30
0.0
 11
1272.8145993999999064
 21
1294.2396009999999933
 31
0.0
 12
1272.2146006000000398
 22
1295.2395989999999983
 32
0.0
 13
1272.8145993999999064
 23
1295.2395989999999983
 33
0.0
  0
SOLID
  5
B0
  8
TOPSOLDER
 10
1272.1130006000000776
 20
1294.1380010000000311
 30
0.0
 11
1272.9161994000000959
 21
1294.1380010000000311
 31
0.0
 12
1272.1130006000000776
 22
1295.3411989999999605
 32
0.0
 13
1272.9161994000000959
 23
1295.3411989999999605
 33
0.0
  0
SOLID
  5
B1
  8
TOPLAYER
 10
1272.2146006000000398
 20
1294.2396009999999933
 30
0.0
 11
1272.8145993999999064
 21
1294.2396009999999933
 31
0.0
 12
1272.2146006000000398
 22
1295.2395989999999983
 32
0.0
 13
1272.8145993999999064
 23
1295.2395989999999983
 33
0.0
  0
POLYLINE
  5
B2
  8
TOPPASTE
 66
     1
 10
0.0
 20
0.0
 30
0.0
 40
0.8000009399999999
 41
0.8000009399999999
  0
VERTEX
  5
1362
  8
TOPPASTE
 10
1275.0799999999999272
 20
1269.6000008000000889
 30
0.0
  0
VERTEX
  5
1363
  8
TOPPASTE
 10
1275.0799999999999272
 20
1270.3999991999999111
 30
0.0
  0
SEQEND
  5
1364
  8
TOPPASTE
  0
POLYLINE
  5
B3
  8
TOPPASTE
 66
     1
 10
0.0
 20
0.0
 30
0.0
 70
     1
 40
0.3999992
 41
0.3999992
  0
VERTEX
  5
1365
  8
TOPPASTE
 10
1274.8800003999999717
 20
1269.6000008000000889
 30
0.0
 42
1.0
  0
VERTEX
  5
1366
  8
TOPPASTE
 10
1275.2799996000001101
 20
1269.6000008000000889
 30
0.0
 42
1.0
  0
SEQEND
  5
1367
  8
TOPPASTE
  0
POLYLINE
  5
B4
  8
TOPPASTE
 66
     1
 10
0.0
 20
0.0
 30
0.0
 70
     1
 40
0.3999992
 41
0.3999992
  0
VERTEX
  5
1368
  8
TOPPASTE
 10
1274.8800003999999717
 20
1270.3999991999999111
 30
0.0
 42
1.0
  0
VERTEX
  5
1369
  8
TOPPASTE
 10
1275.2799996000001101
 20
1270.3999991999999111
 30
0.0
 42
1.0
  0
SEQEND
  5
136A
  8
TOPPASTE
  0
POLYLINE
  5
B5
  8
TOPSOLDER
 66
     1
 10
0.0
 20
0.0
 30
0.0
 40
1.003200939999999
 41
1.003200939999999
  0
VERTEX
  5
136B
  8
TOPSOLDER
 10
1275.0799999999999272
 20
1269.6000008000000889
 30
0.0
  0
VERTEX
  5
136C
  8
TOPSOLDER
 10
1275.0799999999999272
 20
1270.3999991999999111
 30
0.0
  0
SEQEND
  5
136D
  8
TOPSOLDER
  0
POLYLINE
  5
B6
  8
TOPSOLDER
 66
     1
 10
0.0
 20
0.0
 30
0.0
 70
     1
 40
0.5015992000000002
 41
0.5015992000000002
  0
VERTEX
  5
136E
  8
TOPSOLDER
 10
1274.8292003999999906
 20
1269.6000008000000889
 30
0.0
 42
1.0
  0
VERTEX
  5
136F
  8
TOPSOLDER
 10
1275.3307996000000912
 20
1269.6000008000000889
 30
0.0
 42
1.0
  0
SEQEND
  5
1370
  8
TOPSOLDER
  0
POLYLINE
  5
B7
  8
TOPSOLDER
 66
     1
 10
0.0
 20
0.0
 30
0.0
 70
     1
 40
0.5015992000000002
 41
0.5015992000000002
  0
VERTEX
  5
1371
  8
TOPSOLDER
 10
1274.8292003999999906
 20
1270.3999991999999111
 30
0.0
 42
1.0
  0
VERTEX
  5
1372
  8
TOPSOLDER
 10
1275.3307996000000912
 20
1270.3999991999999111
 30
0.0
 42
1.0
  0
SEQEND
  5
1373
  8
TOPSOLDER
  0
POLYLINE
  5
B8
  8
TOPLAYER
 66
     1
 10
0.0
 20
0.0
 30
0.0
 40
0.8000009399999999
 41
0.8000009399999999
  0
VERTEX
  5
1374
  8
TOPLAYER
 10
1275.0799999999999272
 20
1269.6000008000000889
 30
0.0
  0
VERTEX
  5
1375
  8
TOPLAYER
 10
1275.0799999999999272
 20
1270.3999991999999111
 30
0.0
  0
SEQEND
  5
1376
  8
TOPLAYER
  0
POLYLINE
  5
B9
  8
TOPLAYER
 66
     1
 10
0.0
 20
0.0
 30
0.0
 70
     1
 40
0.3999992
 41
0.3999992
  0
VERTEX
  5
1377
  8
TOPLAYER
 10
1274.8800003999999717
 20
1269.6000008000000889
 30
0.0
 42
1.0
  0
VERTEX
  5
1378
  8
TOPLAYER
 10
1275.2799996000001101
 20
1269.6000008000000889
 30
0.0
 42
1.0
  0
SEQEND
  5
1379
  8
TOPLAYER
  0
POLYLINE
  5
BA
  8
TOPLAYER
 66
     1
 10
0.0
 20
0.0
 30
0.0
 70
     1
 40
0.3999992
 41
0.3999992
  0
VERTEX
  5
137A
  8
TOPLAYER
 10
1274.8800003999999717
 20
1270.3999991999999111
 30
0.0
 42
1.0
  0
VERTEX
  5
137B
  8
TOPLAYER
 10
1275.2799996000001101
 20
1270.3999991999999111
 30
0.0
 42
1.0
  0
SEQEND
  5
137C
  8
TOPLAYER
  0
POLYLINE
  5
BB
  8
TOPPASTE
 66
     1
 10
0.0
 20
0.0
 30
0.0
 40
0.8000009399999999
 41
0.8000009399999999
  0
VERTEX
  5
137D
  8
TOPPASTE
 10
1276.3499999999999091
 20
1269.6000008000000889
 30
0.0
  0
VERTEX
  5
137E
  8
TOPPASTE
 10
1276.3499999999999091
 20
1270.3999991999999111
 30
0.0
  0
SEQEND
  5
137F
  8
TOPPASTE
  0
POLYLINE
  5
BC
  8
TOPPASTE
 66
     1
 10
0.0
 20
0.0
 30
0.0
 70
     1
 40
0.3999992
 41
0.3999992
  0
VERTEX
  5
1380
  8
TOPPASTE
 10
1276.1500003999999535
 20
1269.6000008000000889
 30
0.0
 42
1.0
  0
VERTEX
  5
1381
  8
TOPPASTE
 10
1276.549999600000092
 20
1269.6000008000000889
 30
0.0
 42
1.0
  0
SEQEND
  5
1382
  8
TOPPASTE
  0
POLYLINE
  5
BD
  8
TOPPASTE
 66
     1
 10
0.0
 20
0.0
 30
0.0
 70
     1
 40
0.3999992
 41
0.3999992
  0
VERTEX
  5
1383
  8
TOPPASTE
 10
1276.1500003999999535
 20
1270.3999991999999111
 30
0.0
 42
1.0
  0
VERTEX
  5
1384
  8
TOPPASTE
 10
1276.549999600000092
 20
1270.3999991999999111
 30
0.0
 42
1.0
  0
SEQEND
  5
1385
  8
TOPPASTE
  0
POLYLINE
  5
BE
  8
TOPSOLDER
 66
     1
 10
0.0
 20
0.0
 30
0.0
 40
1.003200939999999
 41
1.003200939999999
  0
VERTEX
  5
1386
  8
TOPSOLDER
 10
1276.3499999999999091
 20
1269.6000008000000889
 30
0.0
  0
VERTEX
  5
1387
  8
TOPSOLDER
 10
1276.3499999999999091
 20
1270.3999991999999111
 30
0.0
  0
SEQEND
  5
1388
  8
TOPSOLDER
  0
POLYLINE
  5
BF
  8
TOPSOLDER
 66
     1
 10
0.0
 20
0.0
 30
0.0
 70
     1
 40
0.5015992000000002
 41
0.5015992000000002
  0
VERTEX
  5
1389
  8
TOPSOLDER
 10
1276.0992003999999724
 20
1269.6000008000000889
 30
0.0
 42
1.0
  0
VERTEX
  5
138A
  8
TOPSOLDER
 10
1276.600799600000073
 20
1269.6000008000000889
 30
0.0
 42
1.0
  0
SEQEND
  5
138B
  8
TOPSOLDER
  0
POLYLINE
  5
C0
  8
TOPSOLDER
 66
     1
 10
0.0
 20
0.0
 30
0.0
 70
     1
 40
0.5015992000000002
 41
0.5015992000000002
  0
VERTEX
  5
138C
  8
TOPSOLDER
 10
1276.0992003999999724
 20
1270.3999991999999111
 30
0.0
 42
1.0
  0
VERTEX
  5
138D
  8
TOPSOLDER
 10
1276.600799600000073
 20
1270.3999991999999111
 30
0.0
 42
1.0
  0
SEQEND
  5
138E
  8
TOPSOLDER
  0
POLYLINE
  5
C1
  8
TOPLAYER
 66
     1
 10
0.0
 20
0.0
 30
0.0
 40
0.8000009399999999
 41
0.8000009399999999
  0
VERTEX
  5
138F
  8
TOPLAYER
 10
1276.3499999999999091
 20
1269.6000008000000889
 30
0.0
  0
VERTEX
  5
1390
  8
TOPLAYER
 10
1276.3499999999999091
 20
1270.3999991999999111
 30
0.0
  0
SEQEND
  5
1391
  8
TOPLAYER
  0
POLYLINE
  5
C2
  8
TOPLAYER
 66
     1
 10
0.0
 20
0.0
 30
0.0
 70
     1
 40
0.3999992
 41
0.3999992
  0
VERTEX
  5
1392
  8
TOPLAYER
 10
1276.1500003999999535
 20
1269.6000008000000889
 30
0.0
 42
1.0
  0
VERTEX
  5
1393
  8
TOPLAYER
 10
1276.549999600000092
 20
1269.6000008000000889
 30
0.0
 42
1.0
  0
SEQEND
  5
1394
  8
TOPLAYER
  0
POLYLINE
  5
C3
  8
TOPLAYER
 66
     1
 10
0.0
 20
0.0
 30
0.0
 70
     1
 40
0.3999992
 41
0.3999992
  0
VERTEX
  5
1395
  8
TOPLAYER
 10
1276.1500003999999535
 20
1270.3999991999999111
 30
0.0
 42
1.0
  0
VERTEX
  5
1396
  8
TOPLAYER
 10
1276.549999600000092
 20
1270.3999991999999111
 30
0.0
 42
1.0
  0
SEQEND
  5
1397
  8
TOPLAYER
  0
SOLID
  5
C4
  8
TOPPASTE
 10
1284.2747999999999138
 20
1292.0629988000000594
 30
0.0
 11
1283.6397999999999229
 21
1292.0629988000000594
 31
0.0
 12
1284.2747999999999138
 22
1290.8630012000000988
 32
0.0
 13
1283.6397999999999229
 23
1290.8630012000000988
 33
0.0
  0
SOLID
  5
C5
  8
TOPSOLDER
 10
1284.3764000000001033
 20
1292.1645988000000216
 30
0.0
 11
1283.5381999999999607
 21
1292.1645988000000216
 31
0.0
 12
1284.3764000000001033
 22
1290.7614011999999093
 32
0.0
 13
1283.5381999999999607
 23
1290.7614011999999093
 33
0.0
  0
SOLID
  5
C6
  8
TOPLAYER
 10
1284.2747999999999138
 20
1292.0629988000000594
 30
0.0
 11
1283.6397999999999229
 21
1292.0629988000000594
 31
0.0
 12
1284.2747999999999138
 22
1290.8630012000000988
 32
0.0
 13
1283.6397999999999229
 23
1290.8630012000000988
 33
0.0
  0
SOLID
  5
C7
  8
TOPPASTE
 10
1283.004799999999932
 20
1292.0629988000000594
 30
0.0
 11
1282.3697999999999411
 21
1292.0629988000000594
 31
0.0
 12
1283.004799999999932
 22
1290.8630012000000988
 32
0.0
 13
1282.3697999999999411
 23
1290.8630012000000988
 33
0.0
  0
SOLID
  5
C8
  8
TOPSOLDER
 10
1283.1063999999998941
 20
1292.1645988000000216
 30
0.0
 11
1282.2681999999999789
 21
1292.1645988000000216
 31
0.0
 12
1283.1063999999998941
 22
1290.7614011999999093
 32
0.0
 13
1282.2681999999999789
 23
1290.7614011999999093
 33
0.0
  0
SOLID
  5
C9
  8
TOPLAYER
 10
1283.004799999999932
 20
1292.0629988000000594
 30
0.0
 11
1282.3697999999999411
 21
1292.0629988000000594
 31
0.0
 12
1283.004799999999932
 22
1290.8630012000000988
 32
0.0
 13
1282.3697999999999411
 23
1290.8630012000000988
 33
0.0
  0
POLYLINE
  5
CA
  8
TOPPASTE
 66
     1
 10
0.0
 20
0.0
 30
0.0
 40
0.8000009399999999
 41
0.8000009399999999
  0
VERTEX
  5
1398
  8
TOPPASTE
 10
1275.0799999999999272
 20
1295.0000007999999525
 30
0.0
  0
VERTEX
  5
1399
  8
TOPPASTE
 10
1275.0799999999999272
 20
1295.799999200000002
 30
0.0
  0
SEQEND
  5
139A
  8
TOPPASTE
  0
POLYLINE
  5
CB
  8
TOPPASTE
 66
     1
 10
0.0
 20
0.0
 30
0.0
 70
     1
 40
0.3999992
 41
0.3999992
  0
VERTEX
  5
139B
  8
TOPPASTE
 10
1274.8800003999999717
 20
1295.0000007999999525
 30
0.0
 42
1.0
  0
VERTEX
  5
139C
  8
TOPPASTE
 10
1275.2799996000001101
 20
1295.0000007999999525
 30
0.0
 42
1.0
  0
SEQEND
  5
139D
  8
TOPPASTE
  0
POLYLINE
  5
CC
  8
TOPPASTE
 66
     1
 10
0.0
 20
0.0
 30
0.0
 70
     1
 40
0.3999992
 41
0.3999992
  0
VERTEX
  5
139E
  8
TOPPASTE
 10
1274.8800003999999717
 20
1295.799999200000002
 30
0.0
 42
1.0
  0
VERTEX
  5
139F
  8
TOPPASTE
 10
1275.2799996000001101
 20
1295.799999200000002
 30
0.0
 42
1.0
  0
SEQEND
  5
13A0
  8
TOPPASTE
  0
POLYLINE
  5
CD
  8
TOPSOLDER
 66
     1
 10
0.0
 20
0.0
 30
0.0
 40
1.003200939999999
 41
1.003200939999999
  0
VERTEX
  5
13A1
  8
TOPSOLDER
 10
1275.0799999999999272
 20
1295.0000007999999525
 30
0.0
  0
VERTEX
  5
13A2
  8
TOPSOLDER
 10
1275.0799999999999272
 20
1295.799999200000002
 30
0.0
  0
SEQEND
  5
13A3
  8
TOPSOLDER
  0
POLYLINE
  5
CE
  8
TOPSOLDER
 66
     1
 10
0.0
 20
0.0
 30
0.0
 70
     1
 40
0.5015992000000002
 41
0.5015992000000002
  0
VERTEX
  5
13A4
  8
TOPSOLDER
 10
1274.8292003999999906
 20
1295.0000007999999525
 30
0.0
 42
1.0
  0
VERTEX
  5
13A5
  8
TOPSOLDER
 10
1275.3307996000000912
 20
1295.0000007999999525
 30
0.0
 42
1.0
  0
SEQEND
  5
13A6
  8
TOPSOLDER
  0
POLYLINE
  5
CF
  8
TOPSOLDER
 66
     1
 10
0.0
 20
0.0
 30
0.0
 70
     1
 40
0.5015992000000002
 41
0.5015992000000002
  0
VERTEX
  5
13A7
  8
TOPSOLDER
 10
1274.8292003999999906
 20
1295.799999200000002
 30
0.0
 42
1.0
  0
VERTEX
  5
13A8
  8
TOPSOLDER
 10
1275.3307996000000912
 20
1295.799999200000002
 30
0.0
 42
1.0
  0
SEQEND
  5
13A9
  8
TOPSOLDER
  0
POLYLINE
  5
D0
  8
TOPLAYER
 66
     1
 10
0.0
 20
0.0
 30
0.0
 40
0.8000009399999999
 41
0.8000009399999999
  0
VERTEX
  5
13AA
  8
TOPLAYER
 10
1275.0799999999999272
 20
1295.0000007999999525
 30
0.0
  0
VERTEX
  5
13AB
  8
TOPLAYER
 10
1275.0799999999999272
 20
1295.799999200000002
 30
0.0
  0
SEQEND
  5
13AC
  8
TOPLAYER
  0
POLYLINE
  5
D1
  8
TOPLAYER
 66
     1
 10
0.0
 20
0.0
 30
0.0
 70
     1
 40
0.3999992
 41
0.3999992
  0
VERTEX
  5
13AD
  8
TOPLAYER
 10
1274.8800003999999717
 20
1295.0000007999999525
 30
0.0
 42
1.0
  0
VERTEX
  5
13AE
  8
TOPLAYER
 10
1275.2799996000001101
 20
1295.0000007999999525
 30
0.0
 42
1.0
  0
SEQEND
  5
13AF
  8
TOPLAYER
  0
POLYLINE
  5
D2
  8
TOPLAYER
 66
     1
 10
0.0
 20
0.0
 30
0.0
 70
     1
 40
0.3999992
 41
0.3999992
  0
VERTEX
  5
13B0
  8
TOPLAYER
 10
1274.8800003999999717
 20
1295.799999200000002
 30
0.0
 42
1.0
  0
VERTEX
  5
13B1
  8
TOPLAYER
 10
1275.2799996000001101
 20
1295.799999200000002
 30
0.0
 42
1.0
  0
SEQEND
  5
13B2
  8
TOPLAYER
  0
POLYLINE
  5
D3
  8
TOPPASTE
 66
     1
 10
0.0
 20
0.0
 30
0.0
 40
0.8000009399999999
 41
0.8000009399999999
  0
VERTEX
  5
13B3
  8
TOPPASTE
 10
1276.3499999999999091
 20
1295.799999200000002
 30
0.0
  0
VERTEX
  5
13B4
  8
TOPPASTE
 10
1276.3499999999999091
 20
1295.0000007999999525
 30
0.0
  0
SEQEND
  5
13B5
  8
TOPPASTE
  0
POLYLINE
  5
D4
  8
TOPPASTE
 66
     1
 10
0.0
 20
0.0
 30
0.0
 70
     1
 40
0.3999992
 41
0.3999992
  0
VERTEX
  5
13B6
  8
TOPPASTE
 10
1276.1500003999999535
 20
1295.799999200000002
 30
0.0
 42
1.0
  0
VERTEX
  5
13B7
  8
TOPPASTE
 10
1276.549999600000092
 20
1295.799999200000002
 30
0.0
 42
1.0
  0
SEQEND
  5
13B8
  8
TOPPASTE
  0
POLYLINE
  5
D5
  8
TOPPASTE
 66
     1
 10
0.0
 20
0.0
 30
0.0
 70
     1
 40
0.3999992
 41
0.3999992
  0
VERTEX
  5
13B9
  8
TOPPASTE
 10
1276.1500003999999535
 20
1295.0000007999999525
 30
0.0
 42
1.0
  0
VERTEX
  5
13BA
  8
TOPPASTE
 10
1276.549999600000092
 20
1295.0000007999999525
 30
0.0
 42
1.0
  0
SEQEND
  5
13BB
  8
TOPPASTE
  0
POLYLINE
  5
D6
  8
TOPSOLDER
 66
     1
 10
0.0
 20
0.0
 30
0.0
 40
1.003200939999999
 41
1.003200939999999
  0
VERTEX
  5
13BC
  8
TOPSOLDER
 10
1276.3499999999999091
 20
1295.799999200000002
 30
0.0
  0
VERTEX
  5
13BD
  8
TOPSOLDER
 10
1276.3499999999999091
 20
1295.0000007999999525
 30
0.0
  0
SEQEND
  5
13BE
  8
TOPSOLDER
  0
POLYLINE
  5
D7
  8
TOPSOLDER
 66
     1
 10
0.0
 20
0.0
 30
0.0
 70
     1
 40
0.5015992000000002
 41
0.5015992000000002
  0
VERTEX
  5
13BF
  8
TOPSOLDER
 10
1276.0992003999999724
 20
1295.799999200000002
 30
0.0
 42
1.0
  0
VERTEX
  5
13C0
  8
TOPSOLDER
 10
1276.600799600000073
 20
1295.799999200000002
 30
0.0
 42
1.0
  0
SEQEND
  5
13C1
  8
TOPSOLDER
  0
POLYLINE
  5
D8
  8
TOPSOLDER
 66
     1
 10
0.0
 20
0.0
 30
0.0
 70
     1
 40
0.5015992000000002
 41
0.5015992000000002
  0
VERTEX
  5
13C2
  8
TOPSOLDER
 10
1276.0992003999999724
 20
1295.0000007999999525
 30
0.0
 42
1.0
  0
VERTEX
  5
13C3
  8
TOPSOLDER
 10
1276.600799600000073
 20
1295.0000007999999525
 30
0.0
 42
1.0
  0
SEQEND
  5
13C4
  8
TOPSOLDER
  0
POLYLINE
  5
D9
  8
TOPLAYER
 66
     1
 10
0.0
 20
0.0
 30
0.0
 40
0.8000009399999999
 41
0.8000009399999999
  0
VERTEX
  5
13C5
  8
TOPLAYER
 10
1276.3499999999999091
 20
1295.799999200000002
 30
0.0
  0
VERTEX
  5
13C6
  8
TOPLAYER
 10
1276.3499999999999091
 20
1295.0000007999999525
 30
0.0
  0
SEQEND
  5
13C7
  8
TOPLAYER
  0
POLYLINE
  5
DA
  8
TOPLAYER
 66
     1
 10
0.0
 20
0.0
 30
0.0
 70
     1
 40
0.3999992
 41
0.3999992
  0
VERTEX
  5
13C8
  8
TOPLAYER
 10
1276.1500003999999535
 20
1295.799999200000002
 30
0.0
 42
1.0
  0
VERTEX
  5
13C9
  8
TOPLAYER
 10
1276.549999600000092
 20
1295.799999200000002
 30
0.0
 42
1.0
  0
SEQEND
  5
13CA
  8
TOPLAYER
  0
POLYLINE
  5
DB
  8
TOPLAYER
 66
     1
 10
0.0
 20
0.0
 30
0.0
 70
     1
 40
0.3999992
 41
0.3999992
  0
VERTEX
  5
13CB
  8
TOPLAYER
 10
1276.1500003999999535
 20
1295.0000007999999525
 30
0.0
 42
1.0
  0
VERTEX
  5
13CC
  8
TOPLAYER
 10
1276.549999600000092
 20
1295.0000007999999525
 30
0.0
 42
1.0
  0
SEQEND
  5
13CD
  8
TOPLAYER
  0
POLYLINE
  5
DC
  8
TOPPASTE
 66
     1
 10
0.0
 20
0.0
 30
0.0
 40
0.8000009399999999
 41
0.8000009399999999
  0
VERTEX
  5
13CE
  8
TOPPASTE
 10
1277.6199999999998909
 20
1295.799999200000002
 30
0.0
  0
VERTEX
  5
13CF
  8
TOPPASTE
 10
1277.6199999999998909
 20
1295.0000007999999525
 30
0.0
  0
SEQEND
  5
13D0
  8
TOPPASTE
  0
POLYLINE
  5
DD
  8
TOPPASTE
 66
     1
 10
0.0
 20
0.0
 30
0.0
 70
     1
 40
0.3999992
 41
0.3999992
  0
VERTEX
  5
13D1
  8
TOPPASTE
 10
1277.4200003999999353
 20
1295.799999200000002
 30
0.0
 42
1.0
  0
VERTEX
  5
13D2
  8
TOPPASTE
 10
1277.8199996000000738
 20
1295.799999200000002
 30
0.0
 42
1.0
  0
SEQEND
  5
13D3
  8
TOPPASTE
  0
POLYLINE
  5
DE
  8
TOPPASTE
 66
     1
 10
0.0
 20
0.0
 30
0.0
 70
     1
 40
0.3999992
 41
0.3999992
  0
VERTEX
  5
13D4
  8
TOPPASTE
 10
1277.4200003999999353
 20
1295.0000007999999525
 30
0.0
 42
1.0
  0
VERTEX
  5
13D5
  8
TOPPASTE
 10
1277.8199996000000738
 20
1295.0000007999999525
 30
0.0
 42
1.0
  0
SEQEND
  5
13D6
  8
TOPPASTE
  0
POLYLINE
  5
DF
  8
TOPSOLDER
 66
     1
 10
0.0
 20
0.0
 30
0.0
 40
1.003200939999999
 41
1.003200939999999
  0
VERTEX
  5
13D7
  8
TOPSOLDER
 10
1277.6199999999998909
 20
1295.799999200000002
 30
0.0
  0
VERTEX
  5
13D8
  8
TOPSOLDER
 10
1277.6199999999998909
 20
1295.0000007999999525
 30
0.0
  0
SEQEND
  5
13D9
  8
TOPSOLDER
  0
POLYLINE
  5
E0
  8
TOPSOLDER
 66
     1
 10
0.0
 20
0.0
 30
0.0
 70
     1
 40
0.5015992000000002
 41
0.5015992000000002
  0
VERTEX
  5
13DA
  8
TOPSOLDER
 10
1277.3692003999999542
 20
1295.799999200000002
 30
0.0
 42
1.0
  0
VERTEX
  5
13DB
  8
TOPSOLDER
 10
1277.8707996000000549
 20
1295.799999200000002
 30
0.0
 42
1.0
  0
SEQEND
  5
13DC
  8
TOPSOLDER
  0
POLYLINE
  5
E1
  8
TOPSOLDER
 66
     1
 10
0.0
 20
0.0
 30
0.0
 70
     1
 40
0.5015992000000002
 41
0.5015992000000002
  0
VERTEX
  5
13DD
  8
TOPSOLDER
 10
1277.3692003999999542
 20
1295.0000007999999525
 30
0.0
 42
1.0
  0
VERTEX
  5
13DE
  8
TOPSOLDER
 10
1277.8707996000000549
 20
1295.0000007999999525
 30
0.0
 42
1.0
  0
SEQEND
  5
13DF
  8
TOPSOLDER
  0
POLYLINE
  5
E2
  8
TOPLAYER
 66
     1
 10
0.0
 20
0.0
 30
0.0
 40
0.8000009399999999
 41
0.8000009399999999
  0
VERTEX
  5
13E0
  8
TOPLAYER
 10
1277.6199999999998909
 20
1295.799999200000002
 30
0.0
  0
VERTEX
  5
13E1
  8
TOPLAYER
 10
1277.6199999999998909
 20
1295.0000007999999525
 30
0.0
  0
SEQEND
  5
13E2
  8
TOPLAYER
  0
POLYLINE
  5
E3
  8
TOPLAYER
 66
     1
 10
0.0
 20
0.0
 30
0.0
 70
     1
 40
0.3999992
 41
0.3999992
  0
VERTEX
  5
13E3
  8
TOPLAYER
 10
1277.4200003999999353
 20
1295.799999200000002
 30
0.0
 42
1.0
  0
VERTEX
  5
13E4
  8
TOPLAYER
 10
1277.8199996000000738
 20
1295.799999200000002
 30
0.0
 42
1.0
  0
SEQEND
  5
13E5
  8
TOPLAYER
  0
POLYLINE
  5
E4
  8
TOPLAYER
 66
     1
 10
0.0
 20
0.0
 30
0.0
 70
     1
 40
0.3999992
 41
0.3999992
  0
VERTEX
  5
13E6
  8
TOPLAYER
 10
1277.4200003999999353
 20
1295.0000007999999525
 30
0.0
 42
1.0
  0
VERTEX
  5
13E7
  8
TOPLAYER
 10
1277.8199996000000738
 20
1295.0000007999999525
 30
0.0
 42
1.0
  0
SEQEND
  5
13E8
  8
TOPLAYER
  0
POLYLINE
  5
E5
  8
TOPPASTE
 66
     1
 10
0.0
 20
0.0
 30
0.0
 40
0.8000009399999999
 41
0.8000009399999999
  0
VERTEX
  5
13E9
  8
TOPPASTE
 10
1278.8900000000001
 20
1295.799999200000002
 30
0.0
  0
VERTEX
  5
13EA
  8
TOPPASTE
 10
1278.8900000000001
 20
1295.0000007999999525
 30
0.0
  0
SEQEND
  5
13EB
  8
TOPPASTE
  0
POLYLINE
  5
E6
  8
TOPPASTE
 66
     1
 10
0.0
 20
0.0
 30
0.0
 70
     1
 40
0.3999992
 41
0.3999992
  0
VERTEX
  5
13EC
  8
TOPPASTE
 10
1278.6900003999999171
 20
1295.799999200000002
 30
0.0
 42
1.0
  0
VERTEX
  5
13ED
  8
TOPPASTE
 10
1279.0899996000000556
 20
1295.799999200000002
 30
0.0
 42
1.0
  0
SEQEND
  5
13EE
  8
TOPPASTE
  0
POLYLINE
  5
E7
  8
TOPPASTE
 66
     1
 10
0.0
 20
0.0
 30
0.0
 70
     1
 40
0.3999992
 41
0.3999992
  0
VERTEX
  5
13EF
  8
TOPPASTE
 10
1278.6900003999999171
 20
1295.0000007999999525
 30
0.0
 42
1.0
  0
VERTEX
  5
13F0
  8
TOPPASTE
 10
1279.0899996000000556
 20
1295.0000007999999525
 30
0.0
 42
1.0
  0
SEQEND
  5
13F1
  8
TOPPASTE
  0
POLYLINE
  5
E8
  8
TOPSOLDER
 66
     1
 10
0.0
 20
0.0
 30
0.0
 40
1.003200939999999
 41
1.003200939999999
  0
VERTEX
  5
13F2
  8
TOPSOLDER
 10
1278.8900000000001
 20
1295.799999200000002
 30
0.0
  0
VERTEX
  5
13F3
  8
TOPSOLDER
 10
1278.8900000000001
 20
1295.0000007999999525
 30
0.0
  0
SEQEND
  5
13F4
  8
TOPSOLDER
  0
POLYLINE
  5
E9
  8
TOPSOLDER
 66
     1
 10
0.0
 20
0.0
 30
0.0
 70
     1
 40
0.5015992000000002
 41
0.5015992000000002
  0
VERTEX
  5
13F5
  8
TOPSOLDER
 10
1278.6392003999999361
 20
1295.799999200000002
 30
0.0
 42
1.0
  0
VERTEX
  5
13F6
  8
TOPSOLDER
 10
1279.1407996000000367
 20
1295.799999200000002
 30
0.0
 42
1.0
  0
SEQEND
  5
13F7
  8
TOPSOLDER
  0
POLYLINE
  5
EA
  8
TOPSOLDER
 66
     1
 10
0.0
 20
0.0
 30
0.0
 70
     1
 40
0.5015992000000002
 41
0.5015992000000002
  0
VERTEX
  5
13F8
  8
TOPSOLDER
 10
1278.6392003999999361
 20
1295.0000007999999525
 30
0.0
 42
1.0
  0
VERTEX
  5
13F9
  8
TOPSOLDER
 10
1279.1407996000000367
 20
1295.0000007999999525
 30
0.0
 42
1.0
  0
SEQEND
  5
13FA
  8
TOPSOLDER
  0
POLYLINE
  5
EB
  8
TOPLAYER
 66
     1
 10
0.0
 20
0.0
 30
0.0
 40
0.8000009399999999
 41
0.8000009399999999
  0
VERTEX
  5
13FB
  8
TOPLAYER
 10
1278.8900000000001
 20
1295.799999200000002
 30
0.0
  0
VERTEX
  5
13FC
  8
TOPLAYER
 10
1278.8900000000001
 20
1295.0000007999999525
 30
0.0
  0
SEQEND
  5
13FD
  8
TOPLAYER
  0
POLYLINE
  5
EC
  8
TOPLAYER
 66
     1
 10
0.0
 20
0.0
 30
0.0
 70
     1
 40
0.3999992
 41
0.3999992
  0
VERTEX
  5
13FE
  8
TOPLAYER
 10
1278.6900003999999171
 20
1295.799999200000002
 30
0.0
 42
1.0
  0
VERTEX
  5
13FF
  8
TOPLAYER
 10
1279.0899996000000556
 20
1295.799999200000002
 30
0.0
 42
1.0
  0
SEQEND
  5
1400
  8
TOPLAYER
  0
POLYLINE
  5
ED
  8
TOPLAYER
 66
     1
 10
0.0
 20
0.0
 30
0.0
 70
     1
 40
0.3999992
 41
0.3999992
  0
VERTEX
  5
1401
  8
TOPLAYER
 10
1278.6900003999999171
 20
1295.0000007999999525
 30
0.0
 42
1.0
  0
VERTEX
  5
1402
  8
TOPLAYER
 10
1279.0899996000000556
 20
1295.0000007999999525
 30
0.0
 42
1.0
  0
SEQEND
  5
1403
  8
TOPLAYER
  0
POLYLINE
  5
EE
  8
TOPPASTE
 66
     1
 10
0.0
 20
0.0
 30
0.0
 40
0.8000009399999999
 41
0.8000009399999999
  0
VERTEX
  5
1404
  8
TOPPASTE
 10
1280.1600000000000819
 20
1295.799999200000002
 30
0.0
  0
VERTEX
  5
1405
  8
TOPPASTE
 10
1280.1600000000000819
 20
1295.0000007999999525
 30
0.0
  0
SEQEND
  5
1406
  8
TOPPASTE
  0
POLYLINE
  5
EF
  8
TOPPASTE
 66
     1
 10
0.0
 20
0.0
 30
0.0
 70
     1
 40
0.3999992
 41
0.3999992
  0
VERTEX
  5
1407
  8
TOPPASTE
 10
1279.9600003999998989
 20
1295.799999200000002
 30
0.0
 42
1.0
  0
VERTEX
  5
1408
  8
TOPPASTE
 10
1280.3599996000000374
 20
1295.799999200000002
 30
0.0
 42
1.0
  0
SEQEND
  5
1409
  8
TOPPASTE
  0
POLYLINE
  5
F0
  8
TOPPASTE
 66
     1
 10
0.0
 20
0.0
 30
0.0
 70
     1
 40
0.3999992
 41
0.3999992
  0
VERTEX
  5
140A
  8
TOPPASTE
 10
1279.9600003999998989
 20
1295.0000007999999525
 30
0.0
 42
1.0
  0
VERTEX
  5
140B
  8
TOPPASTE
 10
1280.3599996000000374
 20
1295.0000007999999525
 30
0.0
 42
1.0
  0
SEQEND
  5
140C
  8
TOPPASTE
  0
POLYLINE
  5
F1
  8
TOPSOLDER
 66
     1
 10
0.0
 20
0.0
 30
0.0
 40
1.003200939999999
 41
1.003200939999999
  0
VERTEX
  5
140D
  8
TOPSOLDER
 10
1280.1600000000000819
 20
1295.799999200000002
 30
0.0
  0
VERTEX
  5
140E
  8
TOPSOLDER
 10
1280.1600000000000819
 20
1295.0000007999999525
 30
0.0
  0
SEQEND
  5
140F
  8
TOPSOLDER
  0
POLYLINE
  5
F2
  8
TOPSOLDER
 66
     1
 10
0.0
 20
0.0
 30
0.0
 70
     1
 40
0.5015992000000002
 41
0.5015992000000002
  0
VERTEX
  5
1410
  8
TOPSOLDER
 10
1279.9092003999999179
 20
1295.799999200000002
 30
0.0
 42
1.0
  0
VERTEX
  5
1411
  8
TOPSOLDER
 10
1280.4107996000000185
 20
1295.799999200000002
 30
0.0
 42
1.0
  0
SEQEND
  5
1412
  8
TOPSOLDER
  0
POLYLINE
  5
F3
  8
TOPSOLDER
 66
     1
 10
0.0
 20
0.0
 30
0.0
 70
     1
 40
0.5015992000000002
 41
0.5015992000000002
  0
VERTEX
  5
1413
  8
TOPSOLDER
 10
1279.9092003999999179
 20
1295.0000007999999525
 30
0.0
 42
1.0
  0
VERTEX
  5
1414
  8
TOPSOLDER
 10
1280.4107996000000185
 20
1295.0000007999999525
 30
0.0
 42
1.0
  0
SEQEND
  5
1415
  8
TOPSOLDER
  0
POLYLINE
  5
F4
  8
TOPLAYER
 66
     1
 10
0.0
 20
0.0
 30
0.0
 40
0.8000009399999999
 41
0.8000009399999999
  0
VERTEX
  5
1416
  8
TOPLAYER
 10
1280.1600000000000819
 20
1295.799999200000002
 30
0.0
  0
VERTEX
  5
1417
  8
TOPLAYER
 10
1280.1600000000000819
 20
1295.0000007999999525
 30
0.0
  0
SEQEND
  5
1418
  8
TOPLAYER
  0
POLYLINE
  5
F5
  8
TOPLAYER
 66
     1
 10
0.0
 20
0.0
 30
0.0
 70
     1
 40
0.3999992
 41
0.3999992
  0
VERTEX
  5
1419
  8
TOPLAYER
 10
1279.9600003999998989
 20
1295.799999200000002
 30
0.0
 42
1.0
  0
VERTEX
  5
141A
  8
TOPLAYER
 10
1280.3599996000000374
 20
1295.799999200000002
 30
0.0
 42
1.0
  0
SEQEND
  5
141B
  8
TOPLAYER
  0
POLYLINE
  5
F6
  8
TOPLAYER
 66
     1
 10
0.0
 20
0.0
 30
0.0
 70
     1
 40
0.3999992
 41
0.3999992
  0
VERTEX
  5
141C
  8
TOPLAYER
 10
1279.9600003999998989
 20
1295.0000007999999525
 30
0.0
 42
1.0
  0
VERTEX
  5
141D
  8
TOPLAYER
 10
1280.3599996000000374
 20
1295.0000007999999525
 30
0.0
 42
1.0
  0
SEQEND
  5
141E
  8
TOPLAYER
  0
POLYLINE
  5
F7
  8
TOPPASTE
 66
     1
 10
0.0
 20
0.0
 30
0.0
 40
0.8000009399999999
 41
0.8000009399999999
  0
VERTEX
  5
141F
  8
TOPPASTE
 10
1281.4300000000000637
 20
1295.799999200000002
 30
0.0
  0
VERTEX
  5
1420
  8
TOPPASTE
 10
1281.4300000000000637
 20
1295.0000007999999525
 30
0.0
  0
SEQEND
  5
1421
  8
TOPPASTE
  0
POLYLINE
  5
F8
  8
TOPPASTE
 66
     1
 10
0.0
 20
0.0
 30
0.0
 70
     1
 40
0.3999992
 41
0.3999992
  0
VERTEX
  5
1422
  8
TOPPASTE
 10
1281.2300004000001081
 20
1295.799999200000002
 30
0.0
 42
1.0
  0
VERTEX
  5
1423
  8
TOPPASTE
 10
1281.6299996000000192
 20
1295.799999200000002
 30
0.0
 42
1.0
  0
SEQEND
  5
1424
  8
TOPPASTE
  0
POLYLINE
  5
F9
  8
TOPPASTE
 66
     1
 10
0.0
 20
0.0
 30
0.0
 70
     1
 40
0.3999992
 41
0.3999992
  0
VERTEX
  5
1425
  8
TOPPASTE
 10
1281.2300004000001081
 20
1295.0000007999999525
 30
0.0
 42
1.0
  0
VERTEX
  5
1426
  8
TOPPASTE
 10
1281.6299996000000192
 20
1295.0000007999999525
 30
0.0
 42
1.0
  0
SEQEND
  5
1427
  8
TOPPASTE
  0
POLYLINE
  5
FA
  8
TOPSOLDER
 66
     1
 10
0.0
 20
0.0
 30
0.0
 40
1.003200939999999
 41
1.003200939999999
  0
VERTEX
  5
1428
  8
TOPSOLDER
 10
1281.4300000000000637
 20
1295.799999200000002
 30
0.0
  0
VERTEX
  5
1429
  8
TOPSOLDER
 10
1281.4300000000000637
 20
1295.0000007999999525
 30
0.0
  0
SEQEND
  5
142A
  8
TOPSOLDER
  0
POLYLINE
  5
FB
  8
TOPSOLDER
 66
     1
 10
0.0
 20
0.0
 30
0.0
 70
     1
 40
0.5015992000000002
 41
0.5015992000000002
  0
VERTEX
  5
142B
  8
TOPSOLDER
 10
1281.1792003999998997
 20
1295.799999200000002
 30
0.0
 42
1.0
  0
VERTEX
  5
142C
  8
TOPSOLDER
 10
1281.6807996000000003
 20
1295.799999200000002
 30
0.0
 42
1.0
  0
SEQEND
  5
142D
  8
TOPSOLDER
  0
POLYLINE
  5
FC
  8
TOPSOLDER
 66
     1
 10
0.0
 20
0.0
 30
0.0
 70
     1
 40
0.5015992000000002
 41
0.5015992000000002
  0
VERTEX
  5
142E
  8
TOPSOLDER
 10
1281.1792003999998997
 20
1295.0000007999999525
 30
0.0
 42
1.0
  0
VERTEX
  5
142F
  8
TOPSOLDER
 10
1281.6807996000000003
 20
1295.0000007999999525
 30
0.0
 42
1.0
  0
SEQEND
  5
1430
  8
TOPSOLDER
  0
POLYLINE
  5
FD
  8
TOPLAYER
 66
     1
 10
0.0
 20
0.0
 30
0.0
 40
0.8000009399999999
 41
0.8000009399999999
  0
VERTEX
  5
1431
  8
TOPLAYER
 10
1281.4300000000000637
 20
1295.799999200000002
 30
0.0
  0
VERTEX
  5
1432
  8
TOPLAYER
 10
1281.4300000000000637
 20
1295.0000007999999525
 30
0.0
  0
SEQEND
  5
1433
  8
TOPLAYER
  0
POLYLINE
  5
FE
  8
TOPLAYER
 66
     1
 10
0.0
 20
0.0
 30
0.0
 70
     1
 40
0.3999992
 41
0.3999992
  0
VERTEX
  5
1434
  8
TOPLAYER
 10
1281.2300004000001081
 20
1295.799999200000002
 30
0.0
 42
1.0
  0
VERTEX
  5
1435
  8
TOPLAYER
 10
1281.6299996000000192
 20
1295.799999200000002
 30
0.0
 42
1.0
  0
SEQEND
  5
1436
  8
TOPLAYER
  0
POLYLINE
  5
FF
  8
TOPLAYER
 66
     1
 10
0.0
 20
0.0
 30
0.0
 70
     1
 40
0.3999992
 41
0.3999992
  0
VERTEX
  5
1437
  8
TOPLAYER
 10
1281.2300004000001081
 20
1295.0000007999999525
 30
0.0
 42
1.0
  0
VERTEX
  5
1438
  8
TOPLAYER
 10
1281.6299996000000192
 20
1295.0000007999999525
 30
0.0
 42
1.0
  0
SEQEND
  5
1439
  8
TOPLAYER
  0
POLYLINE
  5
100
  8
TOPPASTE
 66
     1
 10
0.0
 20
0.0
 30
0.0
 40
0.8000009399999999
 41
0.8000009399999999
  0
VERTEX
  5
143A
  8
TOPPASTE
 10
1282.7000000000000455
 20
1295.799999200000002
 30
0.0
  0
VERTEX
  5
143B
  8
TOPPASTE
 10
1282.7000000000000455
 20
1295.0000007999999525
 30
0.0
  0
SEQEND
  5
143C
  8
TOPPASTE
  0
POLYLINE
  5
101
  8
TOPPASTE
 66
     1
 10
0.0
 20
0.0
 30
0.0
 70
     1
 40
0.3999992
 41
0.3999992
  0
VERTEX
  5
143D
  8
TOPPASTE
 10
1282.5000004000000899
 20
1295.799999200000002
 30
0.0
 42
1.0
  0
VERTEX
  5
143E
  8
TOPPASTE
 10
1282.899999600000001
 20
1295.799999200000002
 30
0.0
 42
1.0
  0
SEQEND
  5
143F
  8
TOPPASTE
  0
POLYLINE
  5
102
  8
TOPPASTE
 66
     1
 10
0.0
 20
0.0
 30
0.0
 70
     1
 40
0.3999992
 41
0.3999992
  0
VERTEX
  5
1440
  8
TOPPASTE
 10
1282.5000004000000899
 20
1295.0000007999999525
 30
0.0
 42
1.0
  0
VERTEX
  5
1441
  8
TOPPASTE
 10
1282.899999600000001
 20
1295.0000007999999525
 30
0.0
 42
1.0
  0
SEQEND
  5
1442
  8
TOPPASTE
  0
POLYLINE
  5
103
  8
TOPSOLDER
 66
     1
 10
0.0
 20
0.0
 30
0.0
 40
1.003200939999999
 41
1.003200939999999
  0
VERTEX
  5
1443
  8
TOPSOLDER
 10
1282.7000000000000455
 20
1295.799999200000002
 30
0.0
  0
VERTEX
  5
1444
  8
TOPSOLDER
 10
1282.7000000000000455
 20
1295.0000007999999525
 30
0.0
  0
SEQEND
  5
1445
  8
TOPSOLDER
  0
POLYLINE
  5
104
  8
TOPSOLDER
 66
     1
 10
0.0
 20
0.0
 30
0.0
 70
     1
 40
0.5015992000000002
 41
0.5015992000000002
  0
VERTEX
  5
1446
  8
TOPSOLDER
 10
1282.4492004000001089
 20
1295.799999200000002
 30
0.0
 42
1.0
  0
VERTEX
  5
1447
  8
TOPSOLDER
 10
1282.9507995999999821
 20
1295.799999200000002
 30
0.0
 42
1.0
  0
SEQEND
  5
1448
  8
TOPSOLDER
  0
POLYLINE
  5
105
  8
TOPSOLDER
 66
     1
 10
0.0
 20
0.0
 30
0.0
 70
     1
 40
0.5015992000000002
 41
0.5015992000000002
  0
VERTEX
  5
1449
  8
TOPSOLDER
 10
1282.4492004000001089
 20
1295.0000007999999525
 30
0.0
 42
1.0
  0
VERTEX
  5
144A
  8
TOPSOLDER
 10
1282.9507995999999821
 20
1295.0000007999999525
 30
0.0
 42
1.0
  0
SEQEND
  5
144B
  8
TOPSOLDER
  0
POLYLINE
  5
106
  8
TOPLAYER
 66
     1
 10
0.0
 20
0.0
 30
0.0
 40
0.8000009399999999
 41
0.8000009399999999
  0
VERTEX
  5
144C
  8
TOPLAYER
 10
1282.7000000000000455
 20
1295.799999200000002
 30
0.0
  0
VERTEX
  5
144D
  8
TOPLAYER
 10
1282.7000000000000455
 20
1295.0000007999999525
 30
0.0
  0
SEQEND
  5
144E
  8
TOPLAYER
  0
POLYLINE
  5
107
  8
TOPLAYER
 66
     1
 10
0.0
 20
0.0
 30
0.0
 70
     1
 40
0.3999992
 41
0.3999992
  0
VERTEX
  5
144F
  8
TOPLAYER
 10
1282.5000004000000899
 20
1295.799999200000002
 30
0.0
 42
1.0
  0
VERTEX
  5
1450
  8
TOPLAYER
 10
1282.899999600000001
 20
1295.799999200000002
 30
0.0
 42
1.0
  0
SEQEND
  5
1451
  8
TOPLAYER
  0
POLYLINE
  5
108
  8
TOPLAYER
 66
     1
 10
0.0
 20
0.0
 30
0.0
 70
     1
 40
0.3999992
 41
0.3999992
  0
VERTEX
  5
1452
  8
TOPLAYER
 10
1282.5000004000000899
 20
1295.0000007999999525
 30
0.0
 42
1.0
  0
VERTEX
  5
1453
  8
TOPLAYER
 10
1282.899999600000001
 20
1295.0000007999999525
 30
0.0
 42
1.0
  0
SEQEND
  5
1454
  8
TOPLAYER
  0
POLYLINE
  5
109
  8
TOPPASTE
 66
     1
 10
0.0
 20
0.0
 30
0.0
 40
0.8000009399999999
 41
0.8000009399999999
  0
VERTEX
  5
1455
  8
TOPPASTE
 10
1283.9700000000000273
 20
1295.799999200000002
 30
0.0
  0
VERTEX
  5
1456
  8
TOPPASTE
 10
1283.9700000000000273
 20
1295.0000007999999525
 30
0.0
  0
SEQEND
  5
1457
  8
TOPPASTE
  0
POLYLINE
  5
10A
  8
TOPPASTE
 66
     1
 10
0.0
 20
0.0
 30
0.0
 70
     1
 40
0.3999992
 41
0.3999992
  0
VERTEX
  5
1458
  8
TOPPASTE
 10
1283.7700004000000717
 20
1295.799999200000002
 30
0.0
 42
1.0
  0
VERTEX
  5
1459
  8
TOPPASTE
 10
1284.1699995999999828
 20
1295.799999200000002
 30
0.0
 42
1.0
  0
SEQEND
  5
145A
  8
TOPPASTE
  0
POLYLINE
  5
10B
  8
TOPPASTE
 66
     1
 10
0.0
 20
0.0
 30
0.0
 70
     1
 40
0.3999992
 41
0.3999992
  0
VERTEX
  5
145B
  8
TOPPASTE
 10
1283.7700004000000717
 20
1295.0000007999999525
 30
0.0
 42
1.0
  0
VERTEX
  5
145C
  8
TOPPASTE
 10
1284.1699995999999828
 20
1295.0000007999999525
 30
0.0
 42
1.0
  0
SEQEND
  5
145D
  8
TOPPASTE
  0
POLYLINE
  5
10C
  8
TOPSOLDER
 66
     1
 10
0.0
 20
0.0
 30
0.0
 40
1.003200939999999
 41
1.003200939999999
  0
VERTEX
  5
145E
  8
TOPSOLDER
 10
1283.9700000000000273
 20
1295.799999200000002
 30
0.0
  0
VERTEX
  5
145F
  8
TOPSOLDER
 10
1283.9700000000000273
 20
1295.0000007999999525
 30
0.0
  0
SEQEND
  5
1460
  8
TOPSOLDER
  0
POLYLINE
  5
10D
  8
TOPSOLDER
 66
     1
 10
0.0
 20
0.0
 30
0.0
 70
     1
 40
0.5015992000000002
 41
0.5015992000000002
  0
VERTEX
  5
1461
  8
TOPSOLDER
 10
1283.7192004000000907
 20
1295.799999200000002
 30
0.0
 42
1.0
  0
VERTEX
  5
1462
  8
TOPSOLDER
 10
1284.2207995999999639
 20
1295.799999200000002
 30
0.0
 42
1.0
  0
SEQEND
  5
1463
  8
TOPSOLDER
  0
POLYLINE
  5
10E
  8
TOPSOLDER
 66
     1
 10
0.0
 20
0.0
 30
0.0
 70
     1
 40
0.5015992000000002
 41
0.5015992000000002
  0
VERTEX
  5
1464
  8
TOPSOLDER
 10
1283.7192004000000907
 20
1295.0000007999999525
 30
0.0
 42
1.0
  0
VERTEX
  5
1465
  8
TOPSOLDER
 10
1284.2207995999999639
 20
1295.0000007999999525
 30
0.0
 42
1.0
  0
SEQEND
  5
1466
  8
TOPSOLDER
  0
POLYLINE
  5
10F
  8
TOPLAYER
 66
     1
 10
0.0
 20
0.0
 30
0.0
 40
0.8000009399999999
 41
0.8000009399999999
  0
VERTEX
  5
1467
  8
TOPLAYER
 10
1283.9700000000000273
 20
1295.799999200000002
 30
0.0
  0
VERTEX
  5
1468
  8
TOPLAYER
 10
1283.9700000000000273
 20
1295.0000007999999525
 30
0.0
  0
SEQEND
  5
1469
  8
TOPLAYER
  0
POLYLINE
  5
110
  8
TOPLAYER
 66
     1
 10
0.0
 20
0.0
 30
0.0
 70
     1
 40
0.3999992
 41
0.3999992
  0
VERTEX
  5
146A
  8
TOPLAYER
 10
1283.7700004000000717
 20
1295.799999200000002
 30
0.0
 42
1.0
  0
VERTEX
  5
146B
  8
TOPLAYER
 10
1284.1699995999999828
 20
1295.799999200000002
 30
0.0
 42
1.0
  0
SEQEND
  5
146C
  8
TOPLAYER
  0
POLYLINE
  5
111
  8
TOPLAYER
 66
     1
 10
0.0
 20
0.0
 30
0.0
 70
     1
 40
0.3999992
 41
0.3999992
  0
VERTEX
  5
146D
  8
TOPLAYER
 10
1283.7700004000000717
 20
1295.0000007999999525
 30
0.0
 42
1.0
  0
VERTEX
  5
146E
  8
TOPLAYER
 10
1284.1699995999999828
 20
1295.0000007999999525
 30
0.0
 42
1.0
  0
SEQEND
  5
146F
  8
TOPLAYER
  0
POLYLINE
  5
112
  8
TOPPASTE
 66
     1
 10
0.0
 20
0.0
 30
0.0
 40
0.8000009399999999
 41
0.8000009399999999
  0
VERTEX
  5
1470
  8
TOPPASTE
 10
1285.2400000000000091
 20
1295.799999200000002
 30
0.0
  0
VERTEX
  5
1471
  8
TOPPASTE
 10
1285.2400000000000091
 20
1295.0000007999999525
 30
0.0
  0
SEQEND
  5
1472
  8
TOPPASTE
  0
POLYLINE
  5
113
  8
TOPPASTE
 66
     1
 10
0.0
 20
0.0
 30
0.0
 70
     1
 40
0.3999992
 41
0.3999992
  0
VERTEX
  5
1473
  8
TOPPASTE
 10
1285.0400004000000536
 20
1295.799999200000002
 30
0.0
 42
1.0
  0
VERTEX
  5
1474
  8
TOPPASTE
 10
1285.4399995999999646
 20
1295.799999200000002
 30
0.0
 42
1.0
  0
SEQEND
  5
1475
  8
TOPPASTE
  0
POLYLINE
  5
114
  8
TOPPASTE
 66
     1
 10
0.0
 20
0.0
 30
0.0
 70
     1
 40
0.3999992
 41
0.3999992
  0
VERTEX
  5
1476
  8
TOPPASTE
 10
1285.0400004000000536
 20
1295.0000007999999525
 30
0.0
 42
1.0
  0
VERTEX
  5
1477
  8
TOPPASTE
 10
1285.4399995999999646
 20
1295.0000007999999525
 30
0.0
 42
1.0
  0
SEQEND
  5
1478
  8
TOPPASTE
  0
POLYLINE
  5
115
  8
TOPSOLDER
 66
     1
 10
0.0
 20
0.0
 30
0.0
 40
1.003200939999999
 41
1.003200939999999
  0
VERTEX
  5
1479
  8
TOPSOLDER
 10
1285.2400000000000091
 20
1295.799999200000002
 30
0.0
  0
VERTEX
  5
147A
  8
TOPSOLDER
 10
1285.2400000000000091
 20
1295.0000007999999525
 30
0.0
  0
SEQEND
  5
147B
  8
TOPSOLDER
  0
POLYLINE
  5
116
  8
TOPSOLDER
 66
     1
 10
0.0
 20
0.0
 30
0.0
 70
     1
 40
0.5015992000000002
 41
0.5015992000000002
  0
VERTEX
  5
147C
  8
TOPSOLDER
 10
1284.9892004000000725
 20
1295.799999200000002
 30
0.0
 42
1.0
  0
VERTEX
  5
147D
  8
TOPSOLDER
 10
1285.4907995999999457
 20
1295.799999200000002
 30
0.0
 42
1.0
  0
SEQEND
  5
147E
  8
TOPSOLDER
  0
POLYLINE
  5
117
  8
TOPSOLDER
 66
     1
 10
0.0
 20
0.0
 30
0.0
 70
     1
 40
0.5015992000000002
 41
0.5015992000000002
  0
VERTEX
  5
147F
  8
TOPSOLDER
 10
1284.9892004000000725
 20
1295.0000007999999525
 30
0.0
 42
1.0
  0
VERTEX
  5
1480
  8
TOPSOLDER
 10
1285.4907995999999457
 20
1295.0000007999999525
 30
0.0
 42
1.0
  0
SEQEND
  5
1481
  8
TOPSOLDER
  0
POLYLINE
  5
118
  8
TOPLAYER
 66
     1
 10
0.0
 20
0.0
 30
0.0
 40
0.8000009399999999
 41
0.8000009399999999
  0
VERTEX
  5
1482
  8
TOPLAYER
 10
1285.2400000000000091
 20
1295.799999200000002
 30
0.0
  0
VERTEX
  5
1483
  8
TOPLAYER
 10
1285.2400000000000091
 20
1295.0000007999999525
 30
0.0
  0
SEQEND
  5
1484
  8
TOPLAYER
  0
POLYLINE
  5
119
  8
TOPLAYER
 66
     1
 10
0.0
 20
0.0
 30
0.0
 70
     1
 40
0.3999992
 41
0.3999992
  0
VERTEX
  5
1485
  8
TOPLAYER
 10
1285.0400004000000536
 20
1295.799999200000002
 30
0.0
 42
1.0
  0
VERTEX
  5
1486
  8
TOPLAYER
 10
1285.4399995999999646
 20
1295.799999200000002
 30
0.0
 42
1.0
  0
SEQEND
  5
1487
  8
TOPLAYER
  0
POLYLINE
  5
11A
  8
TOPLAYER
 66
     1
 10
0.0
 20
0.0
 30
0.0
 70
     1
 40
0.3999992
 41
0.3999992
  0
VERTEX
  5
1488
  8
TOPLAYER
 10
1285.0400004000000536
 20
1295.0000007999999525
 30
0.0
 42
1.0
  0
VERTEX
  5
1489
  8
TOPLAYER
 10
1285.4399995999999646
 20
1295.0000007999999525
 30
0.0
 42
1.0
  0
SEQEND
  5
148A
  8
TOPLAYER
  0
POLYLINE
  5
11B
  8
TOPPASTE
 66
     1
 10
0.0
 20
0.0
 30
0.0
 40
0.8000009399999999
 41
0.8000009399999999
  0
VERTEX
  5
148B
  8
TOPPASTE
 10
1286.5099999999999909
 20
1295.799999200000002
 30
0.0
  0
VERTEX
  5
148C
  8
TOPPASTE
 10
1286.5099999999999909
 20
1295.0000007999999525
 30
0.0
  0
SEQEND
  5
148D
  8
TOPPASTE
  0
POLYLINE
  5
11C
  8
TOPPASTE
 66
     1
 10
0.0
 20
0.0
 30
0.0
 70
     1
 40
0.3999992
 41
0.3999992
  0
VERTEX
  5
148E
  8
TOPPASTE
 10
1286.3100004000000354
 20
1295.799999200000002
 30
0.0
 42
1.0
  0
VERTEX
  5
148F
  8
TOPPASTE
 10
1286.7099995999999464
 20
1295.799999200000002
 30
0.0
 42
1.0
  0
SEQEND
  5
1490
  8
TOPPASTE
  0
POLYLINE
  5
11D
  8
TOPPASTE
 66
     1
 10
0.0
 20
0.0
 30
0.0
 70
     1
 40
0.3999992
 41
0.3999992
  0
VERTEX
  5
1491
  8
TOPPASTE
 10
1286.3100004000000354
 20
1295.0000007999999525
 30
0.0
 42
1.0
  0
VERTEX
  5
1492
  8
TOPPASTE
 10
1286.7099995999999464
 20
1295.0000007999999525
 30
0.0
 42
1.0
  0
SEQEND
  5
1493
  8
TOPPASTE
  0
POLYLINE
  5
11E
  8
TOPSOLDER
 66
     1
 10
0.0
 20
0.0
 30
0.0
 40
1.003200939999999
 41
1.003200939999999
  0
VERTEX
  5
1494
  8
TOPSOLDER
 10
1286.5099999999999909
 20
1295.799999200000002
 30
0.0
  0
VERTEX
  5
1495
  8
TOPSOLDER
 10
1286.5099999999999909
 20
1295.0000007999999525
 30
0.0
  0
SEQEND
  5
1496
  8
TOPSOLDER
  0
POLYLINE
  5
11F
  8
TOPSOLDER
 66
     1
 10
0.0
 20
0.0
 30
0.0
 70
     1
 40
0.5015992000000002
 41
0.5015992000000002
  0
VERTEX
  5
1497
  8
TOPSOLDER
 10
1286.2592004000000543
 20
1295.799999200000002
 30
0.0
 42
1.0
  0
VERTEX
  5
1498
  8
TOPSOLDER
 10
1286.7607995999999275
 20
1295.799999200000002
 30
0.0
 42
1.0
  0
SEQEND
  5
1499
  8
TOPSOLDER
  0
POLYLINE
  5
120
  8
TOPSOLDER
 66
     1
 10
0.0
 20
0.0
 30
0.0
 70
     1
 40
0.5015992000000002
 41
0.5015992000000002
  0
VERTEX
  5
149A
  8
TOPSOLDER
 10
1286.2592004000000543
 20
1295.0000007999999525
 30
0.0
 42
1.0
  0
VERTEX
  5
149B
  8
TOPSOLDER
 10
1286.7607995999999275
 20
1295.0000007999999525
 30
0.0
 42
1.0
  0
SEQEND
  5
149C
  8
TOPSOLDER
  0
POLYLINE
  5
121
  8
TOPLAYER
 66
     1
 10
0.0
 20
0.0
 30
0.0
 40
0.8000009399999999
 41
0.8000009399999999
  0
VERTEX
  5
149D
  8
TOPLAYER
 10
1286.5099999999999909
 20
1295.799999200000002
 30
0.0
  0
VERTEX
  5
149E
  8
TOPLAYER
 10
1286.5099999999999909
 20
1295.0000007999999525
 30
0.0
  0
SEQEND
  5
149F
  8
TOPLAYER
  0
POLYLINE
  5
122
  8
TOPLAYER
 66
     1
 10
0.0
 20
0.0
 30
0.0
 70
     1
 40
0.3999992
 41
0.3999992
  0
VERTEX
  5
14A0
  8
TOPLAYER
 10
1286.3100004000000354
 20
1295.799999200000002
 30
0.0
 42
1.0
  0
VERTEX
  5
14A1
  8
TOPLAYER
 10
1286.7099995999999464
 20
1295.799999200000002
 30
0.0
 42
1.0
  0
SEQEND
  5
14A2
  8
TOPLAYER
  0
POLYLINE
  5
123
  8
TOPLAYER
 66
     1
 10
0.0
 20
0.0
 30
0.0
 70
     1
 40
0.3999992
 41
0.3999992
  0
VERTEX
  5
14A3
  8
TOPLAYER
 10
1286.3100004000000354
 20
1295.0000007999999525
 30
0.0
 42
1.0
  0
VERTEX
  5
14A4
  8
TOPLAYER
 10
1286.7099995999999464
 20
1295.0000007999999525
 30
0.0
 42
1.0
  0
SEQEND
  5
14A5
  8
TOPLAYER
  0
POLYLINE
  5
124
  8
TOPPASTE
 66
     1
 10
0.0
 20
0.0
 30
0.0
 40
0.8000009399999999
 41
0.8000009399999999
  0
VERTEX
  5
14A6
  8
TOPPASTE
 10
1287.7799999999999727
 20
1295.799999200000002
 30
0.0
  0
VERTEX
  5
14A7
  8
TOPPASTE
 10
1287.7799999999999727
 20
1295.0000007999999525
 30
0.0
  0
SEQEND
  5
14A8
  8
TOPPASTE
  0
POLYLINE
  5
125
  8
TOPPASTE
 66
     1
 10
0.0
 20
0.0
 30
0.0
 70
     1
 40
0.3999992
 41
0.3999992
  0
VERTEX
  5
14A9
  8
TOPPASTE
 10
1287.5800004000000172
 20
1295.799999200000002
 30
0.0
 42
1.0
  0
VERTEX
  5
14AA
  8
TOPPASTE
 10
1287.9799995999999283
 20
1295.799999200000002
 30
0.0
 42
1.0
  0
SEQEND
  5
14AB
  8
TOPPASTE
  0
POLYLINE
  5
126
  8
TOPPASTE
 66
     1
 10
0.0
 20
0.0
 30
0.0
 70
     1
 40
0.3999992
 41
0.3999992
  0
VERTEX
  5
14AC
  8
TOPPASTE
 10
1287.5800004000000172
 20
1295.0000007999999525
 30
0.0
 42
1.0
  0
VERTEX
  5
14AD
  8
TOPPASTE
 10
1287.9799995999999283
 20
1295.0000007999999525
 30
0.0
 42
1.0
  0
SEQEND
  5
14AE
  8
TOPPASTE
  0
POLYLINE
  5
127
  8
TOPSOLDER
 66
     1
 10
0.0
 20
0.0
 30
0.0
 40
1.003200939999999
 41
1.003200939999999
  0
VERTEX
  5
14AF
  8
TOPSOLDER
 10
1287.7799999999999727
 20
1295.799999200000002
 30
0.0
  0
VERTEX
  5
14B0
  8
TOPSOLDER
 10
1287.7799999999999727
 20
1295.0000007999999525
 30
0.0
  0
SEQEND
  5
14B1
  8
TOPSOLDER
  0
POLYLINE
  5
128
  8
TOPSOLDER
 66
     1
 10
0.0
 20
0.0
 30
0.0
 70
     1
 40
0.5015992000000002
 41
0.5015992000000002
  0
VERTEX
  5
14B2
  8
TOPSOLDER
 10
1287.5292004000000361
 20
1295.799999200000002
 30
0.0
 42
1.0
  0
VERTEX
  5
14B3
  8
TOPSOLDER
 10
1288.0307995999999093
 20
1295.799999200000002
 30
0.0
 42
1.0
  0
SEQEND
  5
14B4
  8
TOPSOLDER
  0
POLYLINE
  5
129
  8
TOPSOLDER
 66
     1
 10
0.0
 20
0.0
 30
0.0
 70
     1
 40
0.5015992000000002
 41
0.5015992000000002
  0
VERTEX
  5
14B5
  8
TOPSOLDER
 10
1287.5292004000000361
 20
1295.0000007999999525
 30
0.0
 42
1.0
  0
VERTEX
  5
14B6
  8
TOPSOLDER
 10
1288.0307995999999093
 20
1295.0000007999999525
 30
0.0
 42
1.0
  0
SEQEND
  5
14B7
  8
TOPSOLDER
  0
POLYLINE
  5
12A
  8
TOPLAYER
 66
     1
 10
0.0
 20
0.0
 30
0.0
 40
0.8000009399999999
 41
0.8000009399999999
  0
VERTEX
  5
14B8
  8
TOPLAYER
 10
1287.7799999999999727
 20
1295.799999200000002
 30
0.0
  0
VERTEX
  5
14B9
  8
TOPLAYER
 10
1287.7799999999999727
 20
1295.0000007999999525
 30
0.0
  0
SEQEND
  5
14BA
  8
TOPLAYER
  0
POLYLINE
  5
12B
  8
TOPLAYER
 66
     1
 10
0.0
 20
0.0
 30
0.0
 70
     1
 40
0.3999992
 41
0.3999992
  0
VERTEX
  5
14BB
  8
TOPLAYER
 10
1287.5800004000000172
 20
1295.799999200000002
 30
0.0
 42
1.0
  0
VERTEX
  5
14BC
  8
TOPLAYER
 10
1287.9799995999999283
 20
1295.799999200000002
 30
0.0
 42
1.0
  0
SEQEND
  5
14BD
  8
TOPLAYER
  0
POLYLINE
  5
12C
  8
TOPLAYER
 66
     1
 10
0.0
 20
0.0
 30
0.0
 70
     1
 40
0.3999992
 41
0.3999992
  0
VERTEX
  5
14BE
  8
TOPLAYER
 10
1287.5800004000000172
 20
1295.0000007999999525
 30
0.0
 42
1.0
  0
VERTEX
  5
14BF
  8
TOPLAYER
 10
1287.9799995999999283
 20
1295.0000007999999525
 30
0.0
 42
1.0
  0
SEQEND
  5
14C0
  8
TOPLAYER
  0
POLYLINE
  5
12D
  8
TOPPASTE
 66
     1
 10
0.0
 20
0.0
 30
0.0
 40
0.8000009399999999
 41
0.8000009399999999
  0
VERTEX
  5
14C1
  8
TOPPASTE
 10
1289.0499999999999545
 20
1295.799999200000002
 30
0.0
  0
VERTEX
  5
14C2
  8
TOPPASTE
 10
1289.0499999999999545
 20
1295.0000007999999525
 30
0.0
  0
SEQEND
  5
14C3
  8
TOPPASTE
  0
POLYLINE
  5
12E
  8
TOPPASTE
 66
     1
 10
0.0
 20
0.0
 30
0.0
 70
     1
 40
0.3999992
 41
0.3999992
  0
VERTEX
  5
14C4
  8
TOPPASTE
 10
1288.850000399999999
 20
1295.799999200000002
 30
0.0
 42
1.0
  0
VERTEX
  5
14C5
  8
TOPPASTE
 10
1289.2499995999999101
 20
1295.799999200000002
 30
0.0
 42
1.0
  0
SEQEND
  5
14C6
  8
TOPPASTE
  0
POLYLINE
  5
12F
  8
TOPPASTE
 66
     1
 10
0.0
 20
0.0
 30
0.0
 70
     1
 40
0.3999992
 41
0.3999992
  0
VERTEX
  5
14C7
  8
TOPPASTE
 10
1288.850000399999999
 20
1295.0000007999999525
 30
0.0
 42
1.0
  0
VERTEX
  5
14C8
  8
TOPPASTE
 10
1289.2499995999999101
 20
1295.0000007999999525
 30
0.0
 42
1.0
  0
SEQEND
  5
14C9
  8
TOPPASTE
  0
POLYLINE
  5
130
  8
TOPSOLDER
 66
     1
 10
0.0
 20
0.0
 30
0.0
 40
1.003200939999999
 41
1.003200939999999
  0
VERTEX
  5
14CA
  8
TOPSOLDER
 10
1289.0499999999999545
 20
1295.799999200000002
 30
0.0
  0
VERTEX
  5
14CB
  8
TOPSOLDER
 10
1289.0499999999999545
 20
1295.0000007999999525
 30
0.0
  0
SEQEND
  5
14CC
  8
TOPSOLDER
  0
POLYLINE
  5
131
  8
TOPSOLDER
 66
     1
 10
0.0
 20
0.0
 30
0.0
 70
     1
 40
0.5015992000000002
 41
0.5015992000000002
  0
VERTEX
  5
14CD
  8
TOPSOLDER
 10
1288.7992004000000179
 20
1295.799999200000002
 30
0.0
 42
1.0
  0
VERTEX
  5
14CE
  8
TOPSOLDER
 10
1289.3007995999998911
 20
1295.799999200000002
 30
0.0
 42
1.0
  0
SEQEND
  5
14CF
  8
TOPSOLDER
  0
POLYLINE
  5
132
  8
TOPSOLDER
 66
     1
 10
0.0
 20
0.0
 30
0.0
 70
     1
 40
0.5015992000000002
 41
0.5015992000000002
  0
VERTEX
  5
14D0
  8
TOPSOLDER
 10
1288.7992004000000179
 20
1295.0000007999999525
 30
0.0
 42
1.0
  0
VERTEX
  5
14D1
  8
TOPSOLDER
 10
1289.3007995999998911
 20
1295.0000007999999525
 30
0.0
 42
1.0
  0
SEQEND
  5
14D2
  8
TOPSOLDER
  0
POLYLINE
  5
133
  8
TOPLAYER
 66
     1
 10
0.0
 20
0.0
 30
0.0
 40
0.8000009399999999
 41
0.8000009399999999
  0
VERTEX
  5
14D3
  8
TOPLAYER
 10
1289.0499999999999545
 20
1295.799999200000002
 30
0.0
  0
VERTEX
  5
14D4
  8
TOPLAYER
 10
1289.0499999999999545
 20
1295.0000007999999525
 30
0.0
  0
SEQEND
  5
14D5
  8
TOPLAYER
  0
POLYLINE
  5
134
  8
TOPLAYER
 66
     1
 10
0.0
 20
0.0
 30
0.0
 70
     1
 40
0.3999992
 41
0.3999992
  0
VERTEX
  5
14D6
  8
TOPLAYER
 10
1288.850000399999999
 20
1295.799999200000002
 30
0.0
 42
1.0
  0
VERTEX
  5
14D7
  8
TOPLAYER
 10
1289.2499995999999101
 20
1295.799999200000002
 30
0.0
 42
1.0
  0
SEQEND
  5
14D8
  8
TOPLAYER
  0
POLYLINE
  5
135
  8
TOPLAYER
 66
     1
 10
0.0
 20
0.0
 30
0.0
 70
     1
 40
0.3999992
 41
0.3999992
  0
VERTEX
  5
14D9
  8
TOPLAYER
 10
1288.850000399999999
 20
1295.0000007999999525
 30
0.0
 42
1.0
  0
VERTEX
  5
14DA
  8
TOPLAYER
 10
1289.2499995999999101
 20
1295.0000007999999525
 30
0.0
 42
1.0
  0
SEQEND
  5
14DB
  8
TOPLAYER
  0
POLYLINE
  5
136
  8
TOPPASTE
 66
     1
 10
0.0
 20
0.0
 30
0.0
 40
0.8000009399999999
 41
0.8000009399999999
  0
VERTEX
  5
14DC
  8
TOPPASTE
 10
1290.3199999999999363
 20
1295.799999200000002
 30
0.0
  0
VERTEX
  5
14DD
  8
TOPPASTE
 10
1290.3199999999999363
 20
1295.0000007999999525
 30
0.0
  0
SEQEND
  5
14DE
  8
TOPPASTE
  0
POLYLINE
  5
137
  8
TOPPASTE
 66
     1
 10
0.0
 20
0.0
 30
0.0
 70
     1
 40
0.3999992
 41
0.3999992
  0
VERTEX
  5
14DF
  8
TOPPASTE
 10
1290.1200003999999808
 20
1295.799999200000002
 30
0.0
 42
1.0
  0
VERTEX
  5
14E0
  8
TOPPASTE
 10
1290.5199995999998919
 20
1295.799999200000002
 30
0.0
 42
1.0
  0
SEQEND
  5
14E1
  8
TOPPASTE
  0
POLYLINE
  5
138
  8
TOPPASTE
 66
     1
 10
0.0
 20
0.0
 30
0.0
 70
     1
 40
0.3999992
 41
0.3999992
  0
VERTEX
  5
14E2
  8
TOPPASTE
 10
1290.1200003999999808
 20
1295.0000007999999525
 30
0.0
 42
1.0
  0
VERTEX
  5
14E3
  8
TOPPASTE
 10
1290.5199995999998919
 20
1295.0000007999999525
 30
0.0
 42
1.0
  0
SEQEND
  5
14E4
  8
TOPPASTE
  0
POLYLINE
  5
139
  8
TOPSOLDER
 66
     1
 10
0.0
 20
0.0
 30
0.0
 40
1.003200939999999
 41
1.003200939999999
  0
VERTEX
  5
14E5
  8
TOPSOLDER
 10
1290.3199999999999363
 20
1295.799999200000002
 30
0.0
  0
VERTEX
  5
14E6
  8
TOPSOLDER
 10
1290.3199999999999363
 20
1295.0000007999999525
 30
0.0
  0
SEQEND
  5
14E7
  8
TOPSOLDER
  0
POLYLINE
  5
13A
  8
TOPSOLDER
 66
     1
 10
0.0
 20
0.0
 30
0.0
 70
     1
 40
0.5015992000000002
 41
0.5015992000000002
  0
VERTEX
  5
14E8
  8
TOPSOLDER
 10
1290.0692003999999997
 20
1295.799999200000002
 30
0.0
 42
1.0
  0
VERTEX
  5
14E9
  8
TOPSOLDER
 10
1290.5707996000001003
 20
1295.799999200000002
 30
0.0
 42
1.0
  0
SEQEND
  5
14EA
  8
TOPSOLDER
  0
POLYLINE
  5
13B
  8
TOPSOLDER
 66
     1
 10
0.0
 20
0.0
 30
0.0
 70
     1
 40
0.5015992000000002
 41
0.5015992000000002
  0
VERTEX
  5
14EB
  8
TOPSOLDER
 10
1290.0692003999999997
 20
1295.0000007999999525
 30
0.0
 42
1.0
  0
VERTEX
  5
14EC
  8
TOPSOLDER
 10
1290.5707996000001003
 20
1295.0000007999999525
 30
0.0
 42
1.0
  0
SEQEND
  5
14ED
  8
TOPSOLDER
  0
POLYLINE
  5
13C
  8
TOPLAYER
 66
     1
 10
0.0
 20
0.0
 30
0.0
 40
0.8000009399999999
 41
0.8000009399999999
  0
VERTEX
  5
14EE
  8
TOPLAYER
 10
1290.3199999999999363
 20
1295.799999200000002
 30
0.0
  0
VERTEX
  5
14EF
  8
TOPLAYER
 10
1290.3199999999999363
 20
1295.0000007999999525
 30
0.0
  0
SEQEND
  5
14F0
  8
TOPLAYER
  0
POLYLINE
  5
13D
  8
TOPLAYER
 66
     1
 10
0.0
 20
0.0
 30
0.0
 70
     1
 40
0.3999992
 41
0.3999992
  0
VERTEX
  5
14F1
  8
TOPLAYER
 10
1290.1200003999999808
 20
1295.799999200000002
 30
0.0
 42
1.0
  0
VERTEX
  5
14F2
  8
TOPLAYER
 10
1290.5199995999998919
 20
1295.799999200000002
 30
0.0
 42
1.0
  0
SEQEND
  5
14F3
  8
TOPLAYER
  0
POLYLINE
  5
13E
  8
TOPLAYER
 66
     1
 10
0.0
 20
0.0
 30
0.0
 70
     1
 40
0.3999992
 41
0.3999992
  0
VERTEX
  5
14F4
  8
TOPLAYER
 10
1290.1200003999999808
 20
1295.0000007999999525
 30
0.0
 42
1.0
  0
VERTEX
  5
14F5
  8
TOPLAYER
 10
1290.5199995999998919
 20
1295.0000007999999525
 30
0.0
 42
1.0
  0
SEQEND
  5
14F6
  8
TOPLAYER
  0
POLYLINE
  5
13F
  8
TOPPASTE
 66
     1
 10
0.0
 20
0.0
 30
0.0
 40
0.8000009399999999
 41
0.8000009399999999
  0
VERTEX
  5
14F7
  8
TOPPASTE
 10
1291.5899999999999181
 20
1295.799999200000002
 30
0.0
  0
VERTEX
  5
14F8
  8
TOPPASTE
 10
1291.5899999999999181
 20
1295.0000007999999525
 30
0.0
  0
SEQEND
  5
14F9
  8
TOPPASTE
  0
POLYLINE
  5
140
  8
TOPPASTE
 66
     1
 10
0.0
 20
0.0
 30
0.0
 70
     1
 40
0.3999992
 41
0.3999992
  0
VERTEX
  5
14FA
  8
TOPPASTE
 10
1291.3900003999999626
 20
1295.799999200000002
 30
0.0
 42
1.0
  0
VERTEX
  5
14FB
  8
TOPPASTE
 10
1291.7899996000001011
 20
1295.799999200000002
 30
0.0
 42
1.0
  0
SEQEND
  5
14FC
  8
TOPPASTE
  0
POLYLINE
  5
141
  8
TOPPASTE
 66
     1
 10
0.0
 20
0.0
 30
0.0
 70
     1
 40
0.3999992
 41
0.3999992
  0
VERTEX
  5
14FD
  8
TOPPASTE
 10
1291.3900003999999626
 20
1295.0000007999999525
 30
0.0
 42
1.0
  0
VERTEX
  5
14FE
  8
TOPPASTE
 10
1291.7899996000001011
 20
1295.0000007999999525
 30
0.0
 42
1.0
  0
SEQEND
  5
14FF
  8
TOPPASTE
  0
POLYLINE
  5
142
  8
TOPSOLDER
 66
     1
 10
0.0
 20
0.0
 30
0.0
 40
1.003200939999999
 41
1.003200939999999
  0
VERTEX
  5
1500
  8
TOPSOLDER
 10
1291.5899999999999181
 20
1295.799999200000002
 30
0.0
  0
VERTEX
  5
1501
  8
TOPSOLDER
 10
1291.5899999999999181
 20
1295.0000007999999525
 30
0.0
  0
SEQEND
  5
1502
  8
TOPSOLDER
  0
POLYLINE
  5
143
  8
TOPSOLDER
 66
     1
 10
0.0
 20
0.0
 30
0.0
 70
     1
 40
0.5015992000000002
 41
0.5015992000000002
  0
VERTEX
  5
1503
  8
TOPSOLDER
 10
1291.3392003999999815
 20
1295.799999200000002
 30
0.0
 42
1.0
  0
VERTEX
  5
1504
  8
TOPSOLDER
 10
1291.8407996000000821
 20
1295.799999200000002
 30
0.0
 42
1.0
  0
SEQEND
  5
1505
  8
TOPSOLDER
  0
POLYLINE
  5
144
  8
TOPSOLDER
 66
     1
 10
0.0
 20
0.0
 30
0.0
 70
     1
 40
0.5015992000000002
 41
0.5015992000000002
  0
VERTEX
  5
1506
  8
TOPSOLDER
 10
1291.3392003999999815
 20
1295.0000007999999525
 30
0.0
 42
1.0
  0
VERTEX
  5
1507
  8
TOPSOLDER
 10
1291.8407996000000821
 20
1295.0000007999999525
 30
0.0
 42
1.0
  0
SEQEND
  5
1508
  8
TOPSOLDER
  0
POLYLINE
  5
145
  8
TOPLAYER
 66
     1
 10
0.0
 20
0.0
 30
0.0
 40
0.8000009399999999
 41
0.8000009399999999
  0
VERTEX
  5
1509
  8
TOPLAYER
 10
1291.5899999999999181
 20
1295.799999200000002
 30
0.0
  0
VERTEX
  5
150A
  8
TOPLAYER
 10
1291.5899999999999181
 20
1295.0000007999999525
 30
0.0
  0
SEQEND
  5
150B
  8
TOPLAYER
  0
POLYLINE
  5
146
  8
TOPLAYER
 66
     1
 10
0.0
 20
0.0
 30
0.0
 70
     1
 40
0.3999992
 41
0.3999992
  0
VERTEX
  5
150C
  8
TOPLAYER
 10
1291.3900003999999626
 20
1295.799999200000002
 30
0.0
 42
1.0
  0
VERTEX
  5
150D
  8
TOPLAYER
 10
1291.7899996000001011
 20
1295.799999200000002
 30
0.0
 42
1.0
  0
SEQEND
  5
150E
  8
TOPLAYER
  0
POLYLINE
  5
147
  8
TOPLAYER
 66
     1
 10
0.0
 20
0.0
 30
0.0
 70
     1
 40
0.3999992
 41
0.3999992
  0
VERTEX
  5
150F
  8
TOPLAYER
 10
1291.3900003999999626
 20
1295.0000007999999525
 30
0.0
 42
1.0
  0
VERTEX
  5
1510
  8
TOPLAYER
 10
1291.7899996000001011
 20
1295.0000007999999525
 30
0.0
 42
1.0
  0
SEQEND
  5
1511
  8
TOPLAYER
  0
POLYLINE
  5
148
  8
TOPPASTE
 66
     1
 10
0.0
 20
0.0
 30
0.0
 40
0.8000009399999999
 41
0.8000009399999999
  0
VERTEX
  5
1512
  8
TOPPASTE
 10
1292.8599999999999
 20
1295.799999200000002
 30
0.0
  0
VERTEX
  5
1513
  8
TOPPASTE
 10
1292.8599999999999
 20
1295.0000007999999525
 30
0.0
  0
SEQEND
  5
1514
  8
TOPPASTE
  0
POLYLINE
  5
149
  8
TOPPASTE
 66
     1
 10
0.0
 20
0.0
 30
0.0
 70
     1
 40
0.3999992
 41
0.3999992
  0
VERTEX
  5
1515
  8
TOPPASTE
 10
1292.6600003999999444
 20
1295.799999200000002
 30
0.0
 42
1.0
  0
VERTEX
  5
1516
  8
TOPPASTE
 10
1293.0599996000000829
 20
1295.799999200000002
 30
0.0
 42
1.0
  0
SEQEND
  5
1517
  8
TOPPASTE
  0
POLYLINE
  5
14A
  8
TOPPASTE
 66
     1
 10
0.0
 20
0.0
 30
0.0
 70
     1
 40
0.3999992
 41
0.3999992
  0
VERTEX
  5
1518
  8
TOPPASTE
 10
1292.6600003999999444
 20
1295.0000007999999525
 30
0.0
 42
1.0
  0
VERTEX
  5
1519
  8
TOPPASTE
 10
1293.0599996000000829
 20
1295.0000007999999525
 30
0.0
 42
1.0
  0
SEQEND
  5
151A
  8
TOPPASTE
  0
POLYLINE
  5
14B
  8
TOPSOLDER
 66
     1
 10
0.0
 20
0.0
 30
0.0
 40
1.003200939999999
 41
1.003200939999999
  0
VERTEX
  5
151B
  8
TOPSOLDER
 10
1292.8599999999999
 20
1295.799999200000002
 30
0.0
  0
VERTEX
  5
151C
  8
TOPSOLDER
 10
1292.8599999999999
 20
1295.0000007999999525
 30
0.0
  0
SEQEND
  5
151D
  8
TOPSOLDER
  0
POLYLINE
  5
14C
  8
TOPSOLDER
 66
     1
 10
0.0
 20
0.0
 30
0.0
 70
     1
 40
0.5015992000000002
 41
0.5015992000000002
  0
VERTEX
  5
151E
  8
TOPSOLDER
 10
1292.6092003999999633
 20
1295.799999200000002
 30
0.0
 42
1.0
  0
VERTEX
  5
151F
  8
TOPSOLDER
 10
1293.1107996000000639
 20
1295.799999200000002
 30
0.0
 42
1.0
  0
SEQEND
  5
1520
  8
TOPSOLDER
  0
POLYLINE
  5
14D
  8
TOPSOLDER
 66
     1
 10
0.0
 20
0.0
 30
0.0
 70
     1
 40
0.5015992000000002
 41
0.5015992000000002
  0
VERTEX
  5
1521
  8
TOPSOLDER
 10
1292.6092003999999633
 20
1295.0000007999999525
 30
0.0
 42
1.0
  0
VERTEX
  5
1522
  8
TOPSOLDER
 10
1293.1107996000000639
 20
1295.0000007999999525
 30
0.0
 42
1.0
  0
SEQEND
  5
1523
  8
TOPSOLDER
  0
POLYLINE
  5
14E
  8
TOPLAYER
 66
     1
 10
0.0
 20
0.0
 30
0.0
 40
0.8000009399999999
 41
0.8000009399999999
  0
VERTEX
  5
1524
  8
TOPLAYER
 10
1292.8599999999999
 20
1295.799999200000002
 30
0.0
  0
VERTEX
  5
1525
  8
TOPLAYER
 10
1292.8599999999999
 20
1295.0000007999999525
 30
0.0
  0
SEQEND
  5
1526
  8
TOPLAYER
  0
POLYLINE
  5
14F
  8
TOPLAYER
 66
     1
 10
0.0
 20
0.0
 30
0.0
 70
     1
 40
0.3999992
 41
0.3999992
  0
VERTEX
  5
1527
  8
TOPLAYER
 10
1292.6600003999999444
 20
1295.799999200000002
 30
0.0
 42
1.0
  0
VERTEX
  5
1528
  8
TOPLAYER
 10
1293.0599996000000829
 20
1295.799999200000002
 30
0.0
 42
1.0
  0
SEQEND
  5
1529
  8
TOPLAYER
  0
POLYLINE
  5
150
  8
TOPLAYER
 66
     1
 10
0.0
 20
0.0
 30
0.0
 70
     1
 40
0.3999992
 41
0.3999992
  0
VERTEX
  5
152A
  8
TOPLAYER
 10
1292.6600003999999444
 20
1295.0000007999999525
 30
0.0
 42
1.0
  0
VERTEX
  5
152B
  8
TOPLAYER
 10
1293.0599996000000829
 20
1295.0000007999999525
 30
0.0
 42
1.0
  0
SEQEND
  5
152C
  8
TOPLAYER
  0
POLYLINE
  5
151
  8
TOPPASTE
 66
     1
 10
0.0
 20
0.0
 30
0.0
 40
0.8000009399999999
 41
0.8000009399999999
  0
VERTEX
  5
152D
  8
TOPPASTE
 10
1294.1300000000001091
 20
1295.799999200000002
 30
0.0
  0
VERTEX
  5
152E
  8
TOPPASTE
 10
1294.1300000000001091
 20
1295.0000007999999525
 30
0.0
  0
SEQEND
  5
152F
  8
TOPPASTE
  0
POLYLINE
  5
152
  8
TOPPASTE
 66
     1
 10
0.0
 20
0.0
 30
0.0
 70
     1
 40
0.3999992
 41
0.3999992
  0
VERTEX
  5
1530
  8
TOPPASTE
 10
1293.9300003999999262
 20
1295.799999200000002
 30
0.0
 42
1.0
  0
VERTEX
  5
1531
  8
TOPPASTE
 10
1294.3299996000000647
 20
1295.799999200000002
 30
0.0
 42
1.0
  0
SEQEND
  5
1532
  8
TOPPASTE
  0
POLYLINE
  5
153
  8
TOPPASTE
 66
     1
 10
0.0
 20
0.0
 30
0.0
 70
     1
 40
0.3999992
 41
0.3999992
  0
VERTEX
  5
1533
  8
TOPPASTE
 10
1293.9300003999999262
 20
1295.0000007999999525
 30
0.0
 42
1.0
  0
VERTEX
  5
1534
  8
TOPPASTE
 10
1294.3299996000000647
 20
1295.0000007999999525
 30
0.0
 42
1.0
  0
SEQEND
  5
1535
  8
TOPPASTE
  0
POLYLINE
  5
154
  8
TOPSOLDER
 66
     1
 10
0.0
 20
0.0
 30
0.0
 40
1.003200939999999
 41
1.003200939999999
  0
VERTEX
  5
1536
  8
TOPSOLDER
 10
1294.1300000000001091
 20
1295.799999200000002
 30
0.0
  0
VERTEX
  5
1537
  8
TOPSOLDER
 10
1294.1300000000001091
 20
1295.0000007999999525
 30
0.0
  0
SEQEND
  5
1538
  8
TOPSOLDER
  0
POLYLINE
  5
155
  8
TOPSOLDER
 66
     1
 10
0.0
 20
0.0
 30
0.0
 70
     1
 40
0.5015992000000002
 41
0.5015992000000002
  0
VERTEX
  5
1539
  8
TOPSOLDER
 10
1293.8792003999999451
 20
1295.799999200000002
 30
0.0
 42
1.0
  0
VERTEX
  5
153A
  8
TOPSOLDER
 10
1294.3807996000000458
 20
1295.799999200000002
 30
0.0
 42
1.0
  0
SEQEND
  5
153B
  8
TOPSOLDER
  0
POLYLINE
  5
156
  8
TOPSOLDER
 66
     1
 10
0.0
 20
0.0
 30
0.0
 70
     1
 40
0.5015992000000002
 41
0.5015992000000002
  0
VERTEX
  5
153C
  8
TOPSOLDER
 10
1293.8792003999999451
 20
1295.0000007999999525
 30
0.0
 42
1.0
  0
VERTEX
  5
153D
  8
TOPSOLDER
 10
1294.3807996000000458
 20
1295.0000007999999525
 30
0.0
 42
1.0
  0
SEQEND
  5
153E
  8
TOPSOLDER
  0
POLYLINE
  5
157
  8
TOPLAYER
 66
     1
 10
0.0
 20
0.0
 30
0.0
 40
0.8000009399999999
 41
0.8000009399999999
  0
VERTEX
  5
153F
  8
TOPLAYER
 10
1294.1300000000001091
 20
1295.799999200000002
 30
0.0
  0
VERTEX
  5
1540
  8
TOPLAYER
 10
1294.1300000000001091
 20
1295.0000007999999525
 30
0.0
  0
SEQEND
  5
1541
  8
TOPLAYER
  0
POLYLINE
  5
158
  8
TOPLAYER
 66
     1
 10
0.0
 20
0.0
 30
0.0
 70
     1
 40
0.3999992
 41
0.3999992
  0
VERTEX
  5
1542
  8
TOPLAYER
 10
1293.9300003999999262
 20
1295.799999200000002
 30
0.0
 42
1.0
  0
VERTEX
  5
1543
  8
TOPLAYER
 10
1294.3299996000000647
 20
1295.799999200000002
 30
0.0
 42
1.0
  0
SEQEND
  5
1544
  8
TOPLAYER
  0
POLYLINE
  5
159
  8
TOPLAYER
 66
     1
 10
0.0
 20
0.0
 30
0.0
 70
     1
 40
0.3999992
 41
0.3999992
  0
VERTEX
  5
1545
  8
TOPLAYER
 10
1293.9300003999999262
 20
1295.0000007999999525
 30
0.0
 42
1.0
  0
VERTEX
  5
1546
  8
TOPLAYER
 10
1294.3299996000000647
 20
1295.0000007999999525
 30
0.0
 42
1.0
  0
SEQEND
  5
1547
  8
TOPLAYER
  0
POLYLINE
  5
15A
  8
TOPPASTE
 66
     1
 10
0.0
 20
0.0
 30
0.0
 40
0.8000009399999999
 41
0.8000009399999999
  0
VERTEX
  5
1548
  8
TOPPASTE
 10
1295.4000000000000909
 20
1295.799999200000002
 30
0.0
  0
VERTEX
  5
1549
  8
TOPPASTE
 10
1295.4000000000000909
 20
1295.0000007999999525
 30
0.0
  0
SEQEND
  5
154A
  8
TOPPASTE
  0
POLYLINE
  5
15B
  8
TOPPASTE
 66
     1
 10
0.0
 20
0.0
 30
0.0
 70
     1
 40
0.3999992
 41
0.3999992
  0
VERTEX
  5
154B
  8
TOPPASTE
 10
1295.200000399999908
 20
1295.799999200000002
 30
0.0
 42
1.0
  0
VERTEX
  5
154C
  8
TOPPASTE
 10
1295.5999996000000465
 20
1295.799999200000002
 30
0.0
 42
1.0
  0
SEQEND
  5
154D
  8
TOPPASTE
  0
POLYLINE
  5
15C
  8
TOPPASTE
 66
     1
 10
0.0
 20
0.0
 30
0.0
 70
     1
 40
0.3999992
 41
0.3999992
  0
VERTEX
  5
154E
  8
TOPPASTE
 10
1295.200000399999908
 20
1295.0000007999999525
 30
0.0
 42
1.0
  0
VERTEX
  5
154F
  8
TOPPASTE
 10
1295.5999996000000465
 20
1295.0000007999999525
 30
0.0
 42
1.0
  0
SEQEND
  5
1550
  8
TOPPASTE
  0
POLYLINE
  5
15D
  8
TOPSOLDER
 66
     1
 10
0.0
 20
0.0
 30
0.0
 40
1.003200939999999
 41
1.003200939999999
  0
VERTEX
  5
1551
  8
TOPSOLDER
 10
1295.4000000000000909
 20
1295.799999200000002
 30
0.0
  0
VERTEX
  5
1552
  8
TOPSOLDER
 10
1295.4000000000000909
 20
1295.0000007999999525
 30
0.0
  0
SEQEND
  5
1553
  8
TOPSOLDER
  0
POLYLINE
  5
15E
  8
TOPSOLDER
 66
     1
 10
0.0
 20
0.0
 30
0.0
 70
     1
 40
0.5015992000000002
 41
0.5015992000000002
  0
VERTEX
  5
1554
  8
TOPSOLDER
 10
1295.149200399999927
 20
1295.799999200000002
 30
0.0
 42
1.0
  0
VERTEX
  5
1555
  8
TOPSOLDER
 10
1295.6507996000000276
 20
1295.799999200000002
 30
0.0
 42
1.0
  0
SEQEND
  5
1556
  8
TOPSOLDER
  0
POLYLINE
  5
15F
  8
TOPSOLDER
 66
     1
 10
0.0
 20
0.0
 30
0.0
 70
     1
 40
0.5015992000000002
 41
0.5015992000000002
  0
VERTEX
  5
1557
  8
TOPSOLDER
 10
1295.149200399999927
 20
1295.0000007999999525
 30
0.0
 42
1.0
  0
VERTEX
  5
1558
  8
TOPSOLDER
 10
1295.6507996000000276
 20
1295.0000007999999525
 30
0.0
 42
1.0
  0
SEQEND
  5
1559
  8
TOPSOLDER
  0
POLYLINE
  5
160
  8
TOPLAYER
 66
     1
 10
0.0
 20
0.0
 30
0.0
 40
0.8000009399999999
 41
0.8000009399999999
  0
VERTEX
  5
155A
  8
TOPLAYER
 10
1295.4000000000000909
 20
1295.799999200000002
 30
0.0
  0
VERTEX
  5
155B
  8
TOPLAYER
 10
1295.4000000000000909
 20
1295.0000007999999525
 30
0.0
  0
SEQEND
  5
155C
  8
TOPLAYER
  0
POLYLINE
  5
161
  8
TOPLAYER
 66
     1
 10
0.0
 20
0.0
 30
0.0
 70
     1
 40
0.3999992
 41
0.3999992
  0
VERTEX
  5
155D
  8
TOPLAYER
 10
1295.200000399999908
 20
1295.799999200000002
 30
0.0
 42
1.0
  0
VERTEX
  5
155E
  8
TOPLAYER
 10
1295.5999996000000465
 20
1295.799999200000002
 30
0.0
 42
1.0
  0
SEQEND
  5
155F
  8
TOPLAYER
  0
POLYLINE
  5
162
  8
TOPLAYER
 66
     1
 10
0.0
 20
0.0
 30
0.0
 70
     1
 40
0.3999992
 41
0.3999992
  0
VERTEX
  5
1560
  8
TOPLAYER
 10
1295.200000399999908
 20
1295.0000007999999525
 30
0.0
 42
1.0
  0
VERTEX
  5
1561
  8
TOPLAYER
 10
1295.5999996000000465
 20
1295.0000007999999525
 30
0.0
 42
1.0
  0
SEQEND
  5
1562
  8
TOPLAYER
  0
POLYLINE
  5
163
  8
TOPPASTE
 66
     1
 10
0.0
 20
0.0
 30
0.0
 40
0.8000009399999999
 41
0.8000009399999999
  0
VERTEX
  5
1563
  8
TOPPASTE
 10
1296.6700000000000728
 20
1295.799999200000002
 30
0.0
  0
VERTEX
  5
1564
  8
TOPPASTE
 10
1296.6700000000000728
 20
1295.0000007999999525
 30
0.0
  0
SEQEND
  5
1565
  8
TOPPASTE
  0
POLYLINE
  5
164
  8
TOPPASTE
 66
     1
 10
0.0
 20
0.0
 30
0.0
 70
     1
 40
0.3999992
 41
0.3999992
  0
VERTEX
  5
1566
  8
TOPPASTE
 10
1296.4700003999998899
 20
1295.799999200000002
 30
0.0
 42
1.0
  0
VERTEX
  5
1567
  8
TOPPASTE
 10
1296.8699996000000283
 20
1295.799999200000002
 30
0.0
 42
1.0
  0
SEQEND
  5
1568
  8
TOPPASTE
  0
POLYLINE
  5
165
  8
TOPPASTE
 66
     1
 10
0.0
 20
0.0
 30
0.0
 70
     1
 40
0.3999992
 41
0.3999992
  0
VERTEX
  5
1569
  8
TOPPASTE
 10
1296.4700003999998899
 20
1295.0000007999999525
 30
0.0
 42
1.0
  0
VERTEX
  5
156A
  8
TOPPASTE
 10
1296.8699996000000283
 20
1295.0000007999999525
 30
0.0
 42
1.0
  0
SEQEND
  5
156B
  8
TOPPASTE
  0
POLYLINE
  5
166
  8
TOPSOLDER
 66
     1
 10
0.0
 20
0.0
 30
0.0
 40
1.003200939999999
 41
1.003200939999999
  0
VERTEX
  5
156C
  8
TOPSOLDER
 10
1296.6700000000000728
 20
1295.799999200000002
 30
0.0
  0
VERTEX
  5
156D
  8
TOPSOLDER
 10
1296.6700000000000728
 20
1295.0000007999999525
 30
0.0
  0
SEQEND
  5
156E
  8
TOPSOLDER
  0
POLYLINE
  5
167
  8
TOPSOLDER
 66
     1
 10
0.0
 20
0.0
 30
0.0
 70
     1
 40
0.5015992000000002
 41
0.5015992000000002
  0
VERTEX
  5
156F
  8
TOPSOLDER
 10
1296.4192003999999088
 20
1295.799999200000002
 30
0.0
 42
1.0
  0
VERTEX
  5
1570
  8
TOPSOLDER
 10
1296.9207996000000094
 20
1295.799999200000002
 30
0.0
 42
1.0
  0
SEQEND
  5
1571
  8
TOPSOLDER
  0
POLYLINE
  5
168
  8
TOPSOLDER
 66
     1
 10
0.0
 20
0.0
 30
0.0
 70
     1
 40
0.5015992000000002
 41
0.5015992000000002
  0
VERTEX
  5
1572
  8
TOPSOLDER
 10
1296.4192003999999088
 20
1295.0000007999999525
 30
0.0
 42
1.0
  0
VERTEX
  5
1573
  8
TOPSOLDER
 10
1296.9207996000000094
 20
1295.0000007999999525
 30
0.0
 42
1.0
  0
SEQEND
  5
1574
  8
TOPSOLDER
  0
POLYLINE
  5
169
  8
TOPLAYER
 66
     1
 10
0.0
 20
0.0
 30
0.0
 40
0.8000009399999999
 41
0.8000009399999999
  0
VERTEX
  5
1575
  8
TOPLAYER
 10
1296.6700000000000728
 20
1295.799999200000002
 30
0.0
  0
VERTEX
  5
1576
  8
TOPLAYER
 10
1296.6700000000000728
 20
1295.0000007999999525
 30
0.0
  0
SEQEND
  5
1577
  8
TOPLAYER
  0
POLYLINE
  5
16A
  8
TOPLAYER
 66
     1
 10
0.0
 20
0.0
 30
0.0
 70
     1
 40
0.3999992
 41
0.3999992
  0
VERTEX
  5
1578
  8
TOPLAYER
 10
1296.4700003999998899
 20
1295.799999200000002
 30
0.0
 42
1.0
  0
VERTEX
  5
1579
  8
TOPLAYER
 10
1296.8699996000000283
 20
1295.799999200000002
 30
0.0
 42
1.0
  0
SEQEND
  5
157A
  8
TOPLAYER
  0
POLYLINE
  5
16B
  8
TOPLAYER
 66
     1
 10
0.0
 20
0.0
 30
0.0
 70
     1
 40
0.3999992
 41
0.3999992
  0
VERTEX
  5
157B
  8
TOPLAYER
 10
1296.4700003999998899
 20
1295.0000007999999525
 30
0.0
 42
1.0
  0
VERTEX
  5
157C
  8
TOPLAYER
 10
1296.8699996000000283
 20
1295.0000007999999525
 30
0.0
 42
1.0
  0
SEQEND
  5
157D
  8
TOPLAYER
  0
POLYLINE
  5
16C
  8
TOPPASTE
 66
     1
 10
0.0
 20
0.0
 30
0.0
 40
0.8000009399999999
 41
0.8000009399999999
  0
VERTEX
  5
157E
  8
TOPPASTE
 10
1297.9400000000000546
 20
1295.799999200000002
 30
0.0
  0
VERTEX
  5
157F
  8
TOPPASTE
 10
1297.9400000000000546
 20
1295.0000007999999525
 30
0.0
  0
SEQEND
  5
1580
  8
TOPPASTE
  0
POLYLINE
  5
16D
  8
TOPPASTE
 66
     1
 10
0.0
 20
0.0
 30
0.0
 70
     1
 40
0.3999992
 41
0.3999992
  0
VERTEX
  5
1581
  8
TOPPASTE
 10
1297.740000400000099
 20
1295.799999200000002
 30
0.0
 42
1.0
  0
VERTEX
  5
1582
  8
TOPPASTE
 10
1298.1399996000000101
 20
1295.799999200000002
 30
0.0
 42
1.0
  0
SEQEND
  5
1583
  8
TOPPASTE
  0
POLYLINE
  5
16E
  8
TOPPASTE
 66
     1
 10
0.0
 20
0.0
 30
0.0
 70
     1
 40
0.3999992
 41
0.3999992
  0
VERTEX
  5
1584
  8
TOPPASTE
 10
1297.740000400000099
 20
1295.0000007999999525
 30
0.0
 42
1.0
  0
VERTEX
  5
1585
  8
TOPPASTE
 10
1298.1399996000000101
 20
1295.0000007999999525
 30
0.0
 42
1.0
  0
SEQEND
  5
1586
  8
TOPPASTE
  0
POLYLINE
  5
16F
  8
TOPSOLDER
 66
     1
 10
0.0
 20
0.0
 30
0.0
 40
1.003200939999999
 41
1.003200939999999
  0
VERTEX
  5
1587
  8
TOPSOLDER
 10
1297.9400000000000546
 20
1295.799999200000002
 30
0.0
  0
VERTEX
  5
1588
  8
TOPSOLDER
 10
1297.9400000000000546
 20
1295.0000007999999525
 30
0.0
  0
SEQEND
  5
1589
  8
TOPSOLDER
  0
POLYLINE
  5
170
  8
TOPSOLDER
 66
     1
 10
0.0
 20
0.0
 30
0.0
 70
     1
 40
0.5015992000000002
 41
0.5015992000000002
  0
VERTEX
  5
158A
  8
TOPSOLDER
 10
1297.6892003999998906
 20
1295.799999200000002
 30
0.0
 42
1.0
  0
VERTEX
  5
158B
  8
TOPSOLDER
 10
1298.1907995999999912
 20
1295.799999200000002
 30
0.0
 42
1.0
  0
SEQEND
  5
158C
  8
TOPSOLDER
  0
POLYLINE
  5
171
  8
TOPSOLDER
 66
     1
 10
0.0
 20
0.0
 30
0.0
 70
     1
 40
0.5015992000000002
 41
0.5015992000000002
  0
VERTEX
  5
158D
  8
TOPSOLDER
 10
1297.6892003999998906
 20
1295.0000007999999525
 30
0.0
 42
1.0
  0
VERTEX
  5
158E
  8
TOPSOLDER
 10
1298.1907995999999912
 20
1295.0000007999999525
 30
0.0
 42
1.0
  0
SEQEND
  5
158F
  8
TOPSOLDER
  0
POLYLINE
  5
172
  8
TOPLAYER
 66
     1
 10
0.0
 20
0.0
 30
0.0
 40
0.8000009399999999
 41
0.8000009399999999
  0
VERTEX
  5
1590
  8
TOPLAYER
 10
1297.9400000000000546
 20
1295.799999200000002
 30
0.0
  0
VERTEX
  5
1591
  8
TOPLAYER
 10
1297.9400000000000546
 20
1295.0000007999999525
 30
0.0
  0
SEQEND
  5
1592
  8
TOPLAYER
  0
POLYLINE
  5
173
  8
TOPLAYER
 66
     1
 10
0.0
 20
0.0
 30
0.0
 70
     1
 40
0.3999992
 41
0.3999992
  0
VERTEX
  5
1593
  8
TOPLAYER
 10
1297.740000400000099
 20
1295.799999200000002
 30
0.0
 42
1.0
  0
VERTEX
  5
1594
  8
TOPLAYER
 10
1298.1399996000000101
 20
1295.799999200000002
 30
0.0
 42
1.0
  0
SEQEND
  5
1595
  8
TOPLAYER
  0
POLYLINE
  5
174
  8
TOPLAYER
 66
     1
 10
0.0
 20
0.0
 30
0.0
 70
     1
 40
0.3999992
 41
0.3999992
  0
VERTEX
  5
1596
  8
TOPLAYER
 10
1297.740000400000099
 20
1295.0000007999999525
 30
0.0
 42
1.0
  0
VERTEX
  5
1597
  8
TOPLAYER
 10
1298.1399996000000101
 20
1295.0000007999999525
 30
0.0
 42
1.0
  0
SEQEND
  5
1598
  8
TOPLAYER
  0
POLYLINE
  5
175
  8
TOPPASTE
 66
     1
 10
0.0
 20
0.0
 30
0.0
 40
0.8000009399999999
 41
0.8000009399999999
  0
VERTEX
  5
1599
  8
TOPPASTE
 10
1299.2100000000000364
 20
1295.799999200000002
 30
0.0
  0
VERTEX
  5
159A
  8
TOPPASTE
 10
1299.2100000000000364
 20
1295.0000007999999525
 30
0.0
  0
SEQEND
  5
159B
  8
TOPPASTE
  0
POLYLINE
  5
176
  8
TOPPASTE
 66
     1
 10
0.0
 20
0.0
 30
0.0
 70
     1
 40
0.3999992
 41
0.3999992
  0
VERTEX
  5
159C
  8
TOPPASTE
 10
1299.0100004000000808
 20
1295.799999200000002
 30
0.0
 42
1.0
  0
VERTEX
  5
159D
  8
TOPPASTE
 10
1299.4099995999999919
 20
1295.799999200000002
 30
0.0
 42
1.0
  0
SEQEND
  5
159E
  8
TOPPASTE
  0
POLYLINE
  5
177
  8
TOPPASTE
 66
     1
 10
0.0
 20
0.0
 30
0.0
 70
     1
 40
0.3999992
 41
0.3999992
  0
VERTEX
  5
159F
  8
TOPPASTE
 10
1299.0100004000000808
 20
1295.0000007999999525
 30
0.0
 42
1.0
  0
VERTEX
  5
15A0
  8
TOPPASTE
 10
1299.4099995999999919
 20
1295.0000007999999525
 30
0.0
 42
1.0
  0
SEQEND
  5
15A1
  8
TOPPASTE
  0
POLYLINE
  5
178
  8
TOPSOLDER
 66
     1
 10
0.0
 20
0.0
 30
0.0
 40
1.003200939999999
 41
1.003200939999999
  0
VERTEX
  5
15A2
  8
TOPSOLDER
 10
1299.2100000000000364
 20
1295.799999200000002
 30
0.0
  0
VERTEX
  5
15A3
  8
TOPSOLDER
 10
1299.2100000000000364
 20
1295.0000007999999525
 30
0.0
  0
SEQEND
  5
15A4
  8
TOPSOLDER
  0
POLYLINE
  5
179
  8
TOPSOLDER
 66
     1
 10
0.0
 20
0.0
 30
0.0
 70
     1
 40
0.5015992000000002
 41
0.5015992000000002
  0
VERTEX
  5
15A5
  8
TOPSOLDER
 10
1298.9592004000000998
 20
1295.799999200000002
 30
0.0
 42
1.0
  0
VERTEX
  5
15A6
  8
TOPSOLDER
 10
1299.460799599999973
 20
1295.799999200000002
 30
0.0
 42
1.0
  0
SEQEND
  5
15A7
  8
TOPSOLDER
  0
POLYLINE
  5
17A
  8
TOPSOLDER
 66
     1
 10
0.0
 20
0.0
 30
0.0
 70
     1
 40
0.5015992000000002
 41
0.5015992000000002
  0
VERTEX
  5
15A8
  8
TOPSOLDER
 10
1298.9592004000000998
 20
1295.0000007999999525
 30
0.0
 42
1.0
  0
VERTEX
  5
15A9
  8
TOPSOLDER
 10
1299.460799599999973
 20
1295.0000007999999525
 30
0.0
 42
1.0
  0
SEQEND
  5
15AA
  8
TOPSOLDER
  0
POLYLINE
  5
17B
  8
TOPLAYER
 66
     1
 10
0.0
 20
0.0
 30
0.0
 40
0.8000009399999999
 41
0.8000009399999999
  0
VERTEX
  5
15AB
  8
TOPLAYER
 10
1299.2100000000000364
 20
1295.799999200000002
 30
0.0
  0
VERTEX
  5
15AC
  8
TOPLAYER
 10
1299.2100000000000364
 20
1295.0000007999999525
 30
0.0
  0
SEQEND
  5
15AD
  8
TOPLAYER
  0
POLYLINE
  5
17C
  8
TOPLAYER
 66
     1
 10
0.0
 20
0.0
 30
0.0
 70
     1
 40
0.3999992
 41
0.3999992
  0
VERTEX
  5
15AE
  8
TOPLAYER
 10
1299.0100004000000808
 20
1295.799999200000002
 30
0.0
 42
1.0
  0
VERTEX
  5
15AF
  8
TOPLAYER
 10
1299.4099995999999919
 20
1295.799999200000002
 30
0.0
 42
1.0
  0
SEQEND
  5
15B0
  8
TOPLAYER
  0
POLYLINE
  5
17D
  8
TOPLAYER
 66
     1
 10
0.0
 20
0.0
 30
0.0
 70
     1
 40
0.3999992
 41
0.3999992
  0
VERTEX
  5
15B1
  8
TOPLAYER
 10
1299.0100004000000808
 20
1295.0000007999999525
 30
0.0
 42
1.0
  0
VERTEX
  5
15B2
  8
TOPLAYER
 10
1299.4099995999999919
 20
1295.0000007999999525
 30
0.0
 42
1.0
  0
SEQEND
  5
15B3
  8
TOPLAYER
  0
POLYLINE
  5
17E
  8
TOPPASTE
 66
     1
 10
0.0
 20
0.0
 30
0.0
 40
0.8000009399999999
 41
0.8000009399999999
  0
VERTEX
  5
15B4
  8
TOPPASTE
 10
1300.4800000000000182
 20
1295.799999200000002
 30
0.0
  0
VERTEX
  5
15B5
  8
TOPPASTE
 10
1300.4800000000000182
 20
1295.0000007999999525
 30
0.0
  0
SEQEND
  5
15B6
  8
TOPPASTE
  0
POLYLINE
  5
17F
  8
TOPPASTE
 66
     1
 10
0.0
 20
0.0
 30
0.0
 70
     1
 40
0.3999992
 41
0.3999992
  0
VERTEX
  5
15B7
  8
TOPPASTE
 10
1300.2800004000000627
 20
1295.799999200000002
 30
0.0
 42
1.0
  0
VERTEX
  5
15B8
  8
TOPPASTE
 10
1300.6799995999999737
 20
1295.799999200000002
 30
0.0
 42
1.0
  0
SEQEND
  5
15B9
  8
TOPPASTE
  0
POLYLINE
  5
180
  8
TOPPASTE
 66
     1
 10
0.0
 20
0.0
 30
0.0
 70
     1
 40
0.3999992
 41
0.3999992
  0
VERTEX
  5
15BA
  8
TOPPASTE
 10
1300.2800004000000627
 20
1295.0000007999999525
 30
0.0
 42
1.0
  0
VERTEX
  5
15BB
  8
TOPPASTE
 10
1300.6799995999999737
 20
1295.0000007999999525
 30
0.0
 42
1.0
  0
SEQEND
  5
15BC
  8
TOPPASTE
  0
POLYLINE
  5
181
  8
TOPSOLDER
 66
     1
 10
0.0
 20
0.0
 30
0.0
 40
1.003200939999999
 41
1.003200939999999
  0
VERTEX
  5
15BD
  8
TOPSOLDER
 10
1300.4800000000000182
 20
1295.799999200000002
 30
0.0
  0
VERTEX
  5
15BE
  8
TOPSOLDER
 10
1300.4800000000000182
 20
1295.0000007999999525
 30
0.0
  0
SEQEND
  5
15BF
  8
TOPSOLDER
  0
POLYLINE
  5
182
  8
TOPSOLDER
 66
     1
 10
0.0
 20
0.0
 30
0.0
 70
     1
 40
0.5015992000000002
 41
0.5015992000000002
  0
VERTEX
  5
15C0
  8
TOPSOLDER
 10
1300.2292004000000816
 20
1295.799999200000002
 30
0.0
 42
1.0
  0
VERTEX
  5
15C1
  8
TOPSOLDER
 10
1300.7307995999999548
 20
1295.799999200000002
 30
0.0
 42
1.0
  0
SEQEND
  5
15C2
  8
TOPSOLDER
  0
POLYLINE
  5
183
  8
TOPSOLDER
 66
     1
 10
0.0
 20
0.0
 30
0.0
 70
     1
 40
0.5015992000000002
 41
0.5015992000000002
  0
VERTEX
  5
15C3
  8
TOPSOLDER
 10
1300.2292004000000816
 20
1295.0000007999999525
 30
0.0
 42
1.0
  0
VERTEX
  5
15C4
  8
TOPSOLDER
 10
1300.7307995999999548
 20
1295.0000007999999525
 30
0.0
 42
1.0
  0
SEQEND
  5
15C5
  8
TOPSOLDER
  0
POLYLINE
  5
184
  8
TOPLAYER
 66
     1
 10
0.0
 20
0.0
 30
0.0
 40
0.8000009399999999
 41
0.8000009399999999
  0
VERTEX
  5
15C6
  8
TOPLAYER
 10
1300.4800000000000182
 20
1295.799999200000002
 30
0.0
  0
VERTEX
  5
15C7
  8
TOPLAYER
 10
1300.4800000000000182
 20
1295.0000007999999525
 30
0.0
  0
SEQEND
  5
15C8
  8
TOPLAYER
  0
POLYLINE
  5
185
  8
TOPLAYER
 66
     1
 10
0.0
 20
0.0
 30
0.0
 70
     1
 40
0.3999992
 41
0.3999992
  0
VERTEX
  5
15C9
  8
TOPLAYER
 10
1300.2800004000000627
 20
1295.799999200000002
 30
0.0
 42
1.0
  0
VERTEX
  5
15CA
  8
TOPLAYER
 10
1300.6799995999999737
 20
1295.799999200000002
 30
0.0
 42
1.0
  0
SEQEND
  5
15CB
  8
TOPLAYER
  0
POLYLINE
  5
186
  8
TOPLAYER
 66
     1
 10
0.0
 20
0.0
 30
0.0
 70
     1
 40
0.3999992
 41
0.3999992
  0
VERTEX
  5
15CC
  8
TOPLAYER
 10
1300.2800004000000627
 20
1295.0000007999999525
 30
0.0
 42
1.0
  0
VERTEX
  5
15CD
  8
TOPLAYER
 10
1300.6799995999999737
 20
1295.0000007999999525
 30
0.0
 42
1.0
  0
SEQEND
  5
15CE
  8
TOPLAYER
  0
POLYLINE
  5
187
  8
TOPPASTE
 66
     1
 10
0.0
 20
0.0
 30
0.0
 40
0.8000009399999999
 41
0.8000009399999999
  0
VERTEX
  5
15CF
  8
TOPPASTE
 10
1301.75
 20
1295.799999200000002
 30
0.0
  0
VERTEX
  5
15D0
  8
TOPPASTE
 10
1301.75
 20
1295.0000007999999525
 30
0.0
  0
SEQEND
  5
15D1
  8
TOPPASTE
  0
POLYLINE
  5
188
  8
TOPPASTE
 66
     1
 10
0.0
 20
0.0
 30
0.0
 70
     1
 40
0.3999992
 41
0.3999992
  0
VERTEX
  5
15D2
  8
TOPPASTE
 10
1301.5500004000000445
 20
1295.799999200000002
 30
0.0
 42
1.0
  0
VERTEX
  5
15D3
  8
TOPPASTE
 10
1301.9499995999999555
 20
1295.799999200000002
 30
0.0
 42
1.0
  0
SEQEND
  5
15D4
  8
TOPPASTE
  0
POLYLINE
  5
189
  8
TOPPASTE
 66
     1
 10
0.0
 20
0.0
 30
0.0
 70
     1
 40
0.3999992
 41
0.3999992
  0
VERTEX
  5
15D5
  8
TOPPASTE
 10
1301.5500004000000445
 20
1295.0000007999999525
 30
0.0
 42
1.0
  0
VERTEX
  5
15D6
  8
TOPPASTE
 10
1301.9499995999999555
 20
1295.0000007999999525
 30
0.0
 42
1.0
  0
SEQEND
  5
15D7
  8
TOPPASTE
  0
POLYLINE
  5
18A
  8
TOPSOLDER
 66
     1
 10
0.0
 20
0.0
 30
0.0
 40
1.003200939999999
 41
1.003200939999999
  0
VERTEX
  5
15D8
  8
TOPSOLDER
 10
1301.75
 20
1295.799999200000002
 30
0.0
  0
VERTEX
  5
15D9
  8
TOPSOLDER
 10
1301.75
 20
1295.0000007999999525
 30
0.0
  0
SEQEND
  5
15DA
  8
TOPSOLDER
  0
POLYLINE
  5
18B
  8
TOPSOLDER
 66
     1
 10
0.0
 20
0.0
 30
0.0
 70
     1
 40
0.5015992000000002
 41
0.5015992000000002
  0
VERTEX
  5
15DB
  8
TOPSOLDER
 10
1301.4992004000000634
 20
1295.799999200000002
 30
0.0
 42
1.0
  0
VERTEX
  5
15DC
  8
TOPSOLDER
 10
1302.0007995999999366
 20
1295.799999200000002
 30
0.0
 42
1.0
  0
SEQEND
  5
15DD
  8
TOPSOLDER
  0
POLYLINE
  5
18C
  8
TOPSOLDER
 66
     1
 10
0.0
 20
0.0
 30
0.0
 70
     1
 40
0.5015992000000002
 41
0.5015992000000002
  0
VERTEX
  5
15DE
  8
TOPSOLDER
 10
1301.4992004000000634
 20
1295.0000007999999525
 30
0.0
 42
1.0
  0
VERTEX
  5
15DF
  8
TOPSOLDER
 10
1302.0007995999999366
 20
1295.0000007999999525
 30
0.0
 42
1.0
  0
SEQEND
  5
15E0
  8
TOPSOLDER
  0
POLYLINE
  5
18D
  8
TOPLAYER
 66
     1
 10
0.0
 20
0.0
 30
0.0
 40
0.8000009399999999
 41
0.8000009399999999
  0
VERTEX
  5
15E1
  8
TOPLAYER
 10
1301.75
 20
1295.799999200000002
 30
0.0
  0
VERTEX
  5
15E2
  8
TOPLAYER
 10
1301.75
 20
1295.0000007999999525
 30
0.0
  0
SEQEND
  5
15E3
  8
TOPLAYER
  0
POLYLINE
  5
18E
  8
TOPLAYER
 66
     1
 10
0.0
 20
0.0
 30
0.0
 70
     1
 40
0.3999992
 41
0.3999992
  0
VERTEX
  5
15E4
  8
TOPLAYER
 10
1301.5500004000000445
 20
1295.799999200000002
 30
0.0
 42
1.0
  0
VERTEX
  5
15E5
  8
TOPLAYER
 10
1301.9499995999999555
 20
1295.799999200000002
 30
0.0
 42
1.0
  0
SEQEND
  5
15E6
  8
TOPLAYER
  0
POLYLINE
  5
18F
  8
TOPLAYER
 66
     1
 10
0.0
 20
0.0
 30
0.0
 70
     1
 40
0.3999992
 41
0.3999992
  0
VERTEX
  5
15E7
  8
TOPLAYER
 10
1301.5500004000000445
 20
1295.0000007999999525
 30
0.0
 42
1.0
  0
VERTEX
  5
15E8
  8
TOPLAYER
 10
1301.9499995999999555
 20
1295.0000007999999525
 30
0.0
 42
1.0
  0
SEQEND
  5
15E9
  8
TOPLAYER
  0
POLYLINE
  5
190
  8
TOPPASTE
 66
     1
 10
0.0
 20
0.0
 30
0.0
 40
0.8000009399999999
 41
0.8000009399999999
  0
VERTEX
  5
15EA
  8
TOPPASTE
 10
1301.75
 20
1269.6000008000000889
 30
0.0
  0
VERTEX
  5
15EB
  8
TOPPASTE
 10
1301.75
 20
1270.3999991999999111
 30
0.0
  0
SEQEND
  5
15EC
  8
TOPPASTE
  0
POLYLINE
  5
191
  8
TOPPASTE
 66
     1
 10
0.0
 20
0.0
 30
0.0
 70
     1
 40
0.3999992
 41
0.3999992
  0
VERTEX
  5
15ED
  8
TOPPASTE
 10
1301.5500004000000445
 20
1269.6000008000000889
 30
0.0
 42
1.0
  0
VERTEX
  5
15EE
  8
TOPPASTE
 10
1301.9499995999999555
 20
1269.6000008000000889
 30
0.0
 42
1.0
  0
SEQEND
  5
15EF
  8
TOPPASTE
  0
POLYLINE
  5
192
  8
TOPPASTE
 66
     1
 10
0.0
 20
0.0
 30
0.0
 70
     1
 40
0.3999992
 41
0.3999992
  0
VERTEX
  5
15F0
  8
TOPPASTE
 10
1301.5500004000000445
 20
1270.3999991999999111
 30
0.0
 42
1.0
  0
VERTEX
  5
15F1
  8
TOPPASTE
 10
1301.9499995999999555
 20
1270.3999991999999111
 30
0.0
 42
1.0
  0
SEQEND
  5
15F2
  8
TOPPASTE
  0
POLYLINE
  5
193
  8
TOPSOLDER
 66
     1
 10
0.0
 20
0.0
 30
0.0
 40
1.003200939999999
 41
1.003200939999999
  0
VERTEX
  5
15F3
  8
TOPSOLDER
 10
1301.75
 20
1269.6000008000000889
 30
0.0
  0
VERTEX
  5
15F4
  8
TOPSOLDER
 10
1301.75
 20
1270.3999991999999111
 30
0.0
  0
SEQEND
  5
15F5
  8
TOPSOLDER
  0
POLYLINE
  5
194
  8
TOPSOLDER
 66
     1
 10
0.0
 20
0.0
 30
0.0
 70
     1
 40
0.5015992000000002
 41
0.5015992000000002
  0
VERTEX
  5
15F6
  8
TOPSOLDER
 10
1301.4992004000000634
 20
1269.6000008000000889
 30
0.0
 42
1.0
  0
VERTEX
  5
15F7
  8
TOPSOLDER
 10
1302.0007995999999366
 20
1269.6000008000000889
 30
0.0
 42
1.0
  0
SEQEND
  5
15F8
  8
TOPSOLDER
  0
POLYLINE
  5
195
  8
TOPSOLDER
 66
     1
 10
0.0
 20
0.0
 30
0.0
 70
     1
 40
0.5015992000000002
 41
0.5015992000000002
  0
VERTEX
  5
15F9
  8
TOPSOLDER
 10
1301.4992004000000634
 20
1270.3999991999999111
 30
0.0
 42
1.0
  0
VERTEX
  5
15FA
  8
TOPSOLDER
 10
1302.0007995999999366
 20
1270.3999991999999111
 30
0.0
 42
1.0
  0
SEQEND
  5
15FB
  8
TOPSOLDER
  0
POLYLINE
  5
196
  8
TOPLAYER
 66
     1
 10
0.0
 20
0.0
 30
0.0
 40
0.8000009399999999
 41
0.8000009399999999
  0
VERTEX
  5
15FC
  8
TOPLAYER
 10
1301.75
 20
1269.6000008000000889
 30
0.0
  0
VERTEX
  5
15FD
  8
TOPLAYER
 10
1301.75
 20
1270.3999991999999111
 30
0.0
  0
SEQEND
  5
15FE
  8
TOPLAYER
  0
POLYLINE
  5
197
  8
TOPLAYER
 66
     1
 10
0.0
 20
0.0
 30
0.0
 70
     1
 40
0.3999992
 41
0.3999992
  0
VERTEX
  5
15FF
  8
TOPLAYER
 10
1301.5500004000000445
 20
1269.6000008000000889
 30
0.0
 42
1.0
  0
VERTEX
  5
1600
  8
TOPLAYER
 10
1301.9499995999999555
 20
1269.6000008000000889
 30
0.0
 42
1.0
  0
SEQEND
  5
1601
  8
TOPLAYER
  0
POLYLINE
  5
198
  8
TOPLAYER
 66
     1
 10
0.0
 20
0.0
 30
0.0
 70
     1
 40
0.3999992
 41
0.3999992
  0
VERTEX
  5
1602
  8
TOPLAYER
 10
1301.5500004000000445
 20
1270.3999991999999111
 30
0.0
 42
1.0
  0
VERTEX
  5
1603
  8
TOPLAYER
 10
1301.9499995999999555
 20
1270.3999991999999111
 30
0.0
 42
1.0
  0
SEQEND
  5
1604
  8
TOPLAYER
  0
POLYLINE
  5
199
  8
TOPPASTE
 66
     1
 10
0.0
 20
0.0
 30
0.0
 40
0.8000009399999999
 41
0.8000009399999999
  0
VERTEX
  5
1605
  8
TOPPASTE
 10
1300.4800000000000182
 20
1269.6000008000000889
 30
0.0
  0
VERTEX
  5
1606
  8
TOPPASTE
 10
1300.4800000000000182
 20
1270.3999991999999111
 30
0.0
  0
SEQEND
  5
1607
  8
TOPPASTE
  0
POLYLINE
  5
19A
  8
TOPPASTE
 66
     1
 10
0.0
 20
0.0
 30
0.0
 70
     1
 40
0.3999992
 41
0.3999992
  0
VERTEX
  5
1608
  8
TOPPASTE
 10
1300.2800004000000627
 20
1269.6000008000000889
 30
0.0
 42
1.0
  0
VERTEX
  5
1609
  8
TOPPASTE
 10
1300.6799995999999737
 20
1269.6000008000000889
 30
0.0
 42
1.0
  0
SEQEND
  5
160A
  8
TOPPASTE
  0
POLYLINE
  5
19B
  8
TOPPASTE
 66
     1
 10
0.0
 20
0.0
 30
0.0
 70
     1
 40
0.3999992
 41
0.3999992
  0
VERTEX
  5
160B
  8
TOPPASTE
 10
1300.2800004000000627
 20
1270.3999991999999111
 30
0.0
 42
1.0
  0
VERTEX
  5
160C
  8
TOPPASTE
 10
1300.6799995999999737
 20
1270.3999991999999111
 30
0.0
 42
1.0
  0
SEQEND
  5
160D
  8
TOPPASTE
  0
POLYLINE
  5
19C
  8
TOPSOLDER
 66
     1
 10
0.0
 20
0.0
 30
0.0
 40
1.003200939999999
 41
1.003200939999999
  0
VERTEX
  5
160E
  8
TOPSOLDER
 10
1300.4800000000000182
 20
1269.6000008000000889
 30
0.0
  0
VERTEX
  5
160F
  8
TOPSOLDER
 10
1300.4800000000000182
 20
1270.3999991999999111
 30
0.0
  0
SEQEND
  5
1610
  8
TOPSOLDER
  0
POLYLINE
  5
19D
  8
TOPSOLDER
 66
     1
 10
0.0
 20
0.0
 30
0.0
 70
     1
 40
0.5015992000000002
 41
0.5015992000000002
  0
VERTEX
  5
1611
  8
TOPSOLDER
 10
1300.2292004000000816
 20
1269.6000008000000889
 30
0.0
 42
1.0
  0
VERTEX
  5
1612
  8
TOPSOLDER
 10
1300.7307995999999548
 20
1269.6000008000000889
 30
0.0
 42
1.0
  0
SEQEND
  5
1613
  8
TOPSOLDER
  0
POLYLINE
  5
19E
  8
TOPSOLDER
 66
     1
 10
0.0
 20
0.0
 30
0.0
 70
     1
 40
0.5015992000000002
 41
0.5015992000000002
  0
VERTEX
  5
1614
  8
TOPSOLDER
 10
1300.2292004000000816
 20
1270.3999991999999111
 30
0.0
 42
1.0
  0
VERTEX
  5
1615
  8
TOPSOLDER
 10
1300.7307995999999548
 20
1270.3999991999999111
 30
0.0
 42
1.0
  0
SEQEND
  5
1616
  8
TOPSOLDER
  0
POLYLINE
  5
19F
  8
TOPLAYER
 66
     1
 10
0.0
 20
0.0
 30
0.0
 40
0.8000009399999999
 41
0.8000009399999999
  0
VERTEX
  5
1617
  8
TOPLAYER
 10
1300.4800000000000182
 20
1269.6000008000000889
 30
0.0
  0
VERTEX
  5
1618
  8
TOPLAYER
 10
1300.4800000000000182
 20
1270.3999991999999111
 30
0.0
  0
SEQEND
  5
1619
  8
TOPLAYER
  0
POLYLINE
  5
1A0
  8
TOPLAYER
 66
     1
 10
0.0
 20
0.0
 30
0.0
 70
     1
 40
0.3999992
 41
0.3999992
  0
VERTEX
  5
161A
  8
TOPLAYER
 10
1300.2800004000000627
 20
1269.6000008000000889
 30
0.0
 42
1.0
  0
VERTEX
  5
161B
  8
TOPLAYER
 10
1300.6799995999999737
 20
1269.6000008000000889
 30
0.0
 42
1.0
  0
SEQEND
  5
161C
  8
TOPLAYER
  0
POLYLINE
  5
1A1
  8
TOPLAYER
 66
     1
 10
0.0
 20
0.0
 30
0.0
 70
     1
 40
0.3999992
 41
0.3999992
  0
VERTEX
  5
161D
  8
TOPLAYER
 10
1300.2800004000000627
 20
1270.3999991999999111
 30
0.0
 42
1.0
  0
VERTEX
  5
161E
  8
TOPLAYER
 10
1300.6799995999999737
 20
1270.3999991999999111
 30
0.0
 42
1.0
  0
SEQEND
  5
161F
  8
TOPLAYER
  0
POLYLINE
  5
1A2
  8
TOPPASTE
 66
     1
 10
0.0
 20
0.0
 30
0.0
 40
0.8000009399999999
 41
0.8000009399999999
  0
VERTEX
  5
1620
  8
TOPPASTE
 10
1299.2100000000000364
 20
1269.6000008000000889
 30
0.0
  0
VERTEX
  5
1621
  8
TOPPASTE
 10
1299.2100000000000364
 20
1270.3999991999999111
 30
0.0
  0
SEQEND
  5
1622
  8
TOPPASTE
  0
POLYLINE
  5
1A3
  8
TOPPASTE
 66
     1
 10
0.0
 20
0.0
 30
0.0
 70
     1
 40
0.3999992
 41
0.3999992
  0
VERTEX
  5
1623
  8
TOPPASTE
 10
1299.0100004000000808
 20
1269.6000008000000889
 30
0.0
 42
1.0
  0
VERTEX
  5
1624
  8
TOPPASTE
 10
1299.4099995999999919
 20
1269.6000008000000889
 30
0.0
 42
1.0
  0
SEQEND
  5
1625
  8
TOPPASTE
  0
POLYLINE
  5
1A4
  8
TOPPASTE
 66
     1
 10
0.0
 20
0.0
 30
0.0
 70
     1
 40
0.3999992
 41
0.3999992
  0
VERTEX
  5
1626
  8
TOPPASTE
 10
1299.0100004000000808
 20
1270.3999991999999111
 30
0.0
 42
1.0
  0
VERTEX
  5
1627
  8
TOPPASTE
 10
1299.4099995999999919
 20
1270.3999991999999111
 30
0.0
 42
1.0
  0
SEQEND
  5
1628
  8
TOPPASTE
  0
POLYLINE
  5
1A5
  8
TOPSOLDER
 66
     1
 10
0.0
 20
0.0
 30
0.0
 40
1.003200939999999
 41
1.003200939999999
  0
VERTEX
  5
1629
  8
TOPSOLDER
 10
1299.2100000000000364
 20
1269.6000008000000889
 30
0.0
  0
VERTEX
  5
162A
  8
TOPSOLDER
 10
1299.2100000000000364
 20
1270.3999991999999111
 30
0.0
  0
SEQEND
  5
162B
  8
TOPSOLDER
  0
POLYLINE
  5
1A6
  8
TOPSOLDER
 66
     1
 10
0.0
 20
0.0
 30
0.0
 70
     1
 40
0.5015992000000002
 41
0.5015992000000002
  0
VERTEX
  5
162C
  8
TOPSOLDER
 10
1298.9592004000000998
 20
1269.6000008000000889
 30
0.0
 42
1.0
  0
VERTEX
  5
162D
  8
TOPSOLDER
 10
1299.460799599999973
 20
1269.6000008000000889
 30
0.0
 42
1.0
  0
SEQEND
  5
162E
  8
TOPSOLDER
  0
POLYLINE
  5
1A7
  8
TOPSOLDER
 66
     1
 10
0.0
 20
0.0
 30
0.0
 70
     1
 40
0.5015992000000002
 41
0.5015992000000002
  0
VERTEX
  5
162F
  8
TOPSOLDER
 10
1298.9592004000000998
 20
1270.3999991999999111
 30
0.0
 42
1.0
  0
VERTEX
  5
1630
  8
TOPSOLDER
 10
1299.460799599999973
 20
1270.3999991999999111
 30
0.0
 42
1.0
  0
SEQEND
  5
1631
  8
TOPSOLDER
  0
POLYLINE
  5
1A8
  8
TOPLAYER
 66
     1
 10
0.0
 20
0.0
 30
0.0
 40
0.8000009399999999
 41
0.8000009399999999
  0
VERTEX
  5
1632
  8
TOPLAYER
 10
1299.2100000000000364
 20
1269.6000008000000889
 30
0.0
  0
VERTEX
  5
1633
  8
TOPLAYER
 10
1299.2100000000000364
 20
1270.3999991999999111
 30
0.0
  0
SEQEND
  5
1634
  8
TOPLAYER
  0
POLYLINE
  5
1A9
  8
TOPLAYER
 66
     1
 10
0.0
 20
0.0
 30
0.0
 70
     1
 40
0.3999992
 41
0.3999992
  0
VERTEX
  5
1635
  8
TOPLAYER
 10
1299.0100004000000808
 20
1269.6000008000000889
 30
0.0
 42
1.0
  0
VERTEX
  5
1636
  8
TOPLAYER
 10
1299.4099995999999919
 20
1269.6000008000000889
 30
0.0
 42
1.0
  0
SEQEND
  5
1637
  8
TOPLAYER
  0
POLYLINE
  5
1AA
  8
TOPLAYER
 66
     1
 10
0.0
 20
0.0
 30
0.0
 70
     1
 40
0.3999992
 41
0.3999992
  0
VERTEX
  5
1638
  8
TOPLAYER
 10
1299.0100004000000808
 20
1270.3999991999999111
 30
0.0
 42
1.0
  0
VERTEX
  5
1639
  8
TOPLAYER
 10
1299.4099995999999919
 20
1270.3999991999999111
 30
0.0
 42
1.0
  0
SEQEND
  5
163A
  8
TOPLAYER
  0
POLYLINE
  5
1AB
  8
TOPPASTE
 66
     1
 10
0.0
 20
0.0
 30
0.0
 40
0.8000009399999999
 41
0.8000009399999999
  0
VERTEX
  5
163B
  8
TOPPASTE
 10
1297.9400000000000546
 20
1269.6000008000000889
 30
0.0
  0
VERTEX
  5
163C
  8
TOPPASTE
 10
1297.9400000000000546
 20
1270.3999991999999111
 30
0.0
  0
SEQEND
  5
163D
  8
TOPPASTE
  0
POLYLINE
  5
1AC
  8
TOPPASTE
 66
     1
 10
0.0
 20
0.0
 30
0.0
 70
     1
 40
0.3999992
 41
0.3999992
  0
VERTEX
  5
163E
  8
TOPPASTE
 10
1297.740000400000099
 20
1269.6000008000000889
 30
0.0
 42
1.0
  0
VERTEX
  5
163F
  8
TOPPASTE
 10
1298.1399996000000101
 20
1269.6000008000000889
 30
0.0
 42
1.0
  0
SEQEND
  5
1640
  8
TOPPASTE
  0
POLYLINE
  5
1AD
  8
TOPPASTE
 66
     1
 10
0.0
 20
0.0
 30
0.0
 70
     1
 40
0.3999992
 41
0.3999992
  0
VERTEX
  5
1641
  8
TOPPASTE
 10
1297.740000400000099
 20
1270.3999991999999111
 30
0.0
 42
1.0
  0
VERTEX
  5
1642
  8
TOPPASTE
 10
1298.1399996000000101
 20
1270.3999991999999111
 30
0.0
 42
1.0
  0
SEQEND
  5
1643
  8
TOPPASTE
  0
POLYLINE
  5
1AE
  8
TOPSOLDER
 66
     1
 10
0.0
 20
0.0
 30
0.0
 40
1.003200939999999
 41
1.003200939999999
  0
VERTEX
  5
1644
  8
TOPSOLDER
 10
1297.9400000000000546
 20
1269.6000008000000889
 30
0.0
  0
VERTEX
  5
1645
  8
TOPSOLDER
 10
1297.9400000000000546
 20
1270.3999991999999111
 30
0.0
  0
SEQEND
  5
1646
  8
TOPSOLDER
  0
POLYLINE
  5
1AF
  8
TOPSOLDER
 66
     1
 10
0.0
 20
0.0
 30
0.0
 70
     1
 40
0.5015992000000002
 41
0.5015992000000002
  0
VERTEX
  5
1647
  8
TOPSOLDER
 10
1297.6892003999998906
 20
1269.6000008000000889
 30
0.0
 42
1.0
  0
VERTEX
  5
1648
  8
TOPSOLDER
 10
1298.1907995999999912
 20
1269.6000008000000889
 30
0.0
 42
1.0
  0
SEQEND
  5
1649
  8
TOPSOLDER
  0
POLYLINE
  5
1B0
  8
TOPSOLDER
 66
     1
 10
0.0
 20
0.0
 30
0.0
 70
     1
 40
0.5015992000000002
 41
0.5015992000000002
  0
VERTEX
  5
164A
  8
TOPSOLDER
 10
1297.6892003999998906
 20
1270.3999991999999111
 30
0.0
 42
1.0
  0
VERTEX
  5
164B
  8
TOPSOLDER
 10
1298.1907995999999912
 20
1270.3999991999999111
 30
0.0
 42
1.0
  0
SEQEND
  5
164C
  8
TOPSOLDER
  0
POLYLINE
  5
1B1
  8
TOPLAYER
 66
     1
 10
0.0
 20
0.0
 30
0.0
 40
0.8000009399999999
 41
0.8000009399999999
  0
VERTEX
  5
164D
  8
TOPLAYER
 10
1297.9400000000000546
 20
1269.6000008000000889
 30
0.0
  0
VERTEX
  5
164E
  8
TOPLAYER
 10
1297.9400000000000546
 20
1270.3999991999999111
 30
0.0
  0
SEQEND
  5
164F
  8
TOPLAYER
  0
POLYLINE
  5
1B2
  8
TOPLAYER
 66
     1
 10
0.0
 20
0.0
 30
0.0
 70
     1
 40
0.3999992
 41
0.3999992
  0
VERTEX
  5
1650
  8
TOPLAYER
 10
1297.740000400000099
 20
1269.6000008000000889
 30
0.0
 42
1.0
  0
VERTEX
  5
1651
  8
TOPLAYER
 10
1298.1399996000000101
 20
1269.6000008000000889
 30
0.0
 42
1.0
  0
SEQEND
  5
1652
  8
TOPLAYER
  0
POLYLINE
  5
1B3
  8
TOPLAYER
 66
     1
 10
0.0
 20
0.0
 30
0.0
 70
     1
 40
0.3999992
 41
0.3999992
  0
VERTEX
  5
1653
  8
TOPLAYER
 10
1297.740000400000099
 20
1270.3999991999999111
 30
0.0
 42
1.0
  0
VERTEX
  5
1654
  8
TOPLAYER
 10
1298.1399996000000101
 20
1270.3999991999999111
 30
0.0
 42
1.0
  0
SEQEND
  5
1655
  8
TOPLAYER
  0
POLYLINE
  5
1B4
  8
TOPPASTE
 66
     1
 10
0.0
 20
0.0
 30
0.0
 40
0.8000009399999999
 41
0.8000009399999999
  0
VERTEX
  5
1656
  8
TOPPASTE
 10
1296.6700000000000728
 20
1269.6000008000000889
 30
0.0
  0
VERTEX
  5
1657
  8
TOPPASTE
 10
1296.6700000000000728
 20
1270.3999991999999111
 30
0.0
  0
SEQEND
  5
1658
  8
TOPPASTE
  0
POLYLINE
  5
1B5
  8
TOPPASTE
 66
     1
 10
0.0
 20
0.0
 30
0.0
 70
     1
 40
0.3999992
 41
0.3999992
  0
VERTEX
  5
1659
  8
TOPPASTE
 10
1296.4700003999998899
 20
1269.6000008000000889
 30
0.0
 42
1.0
  0
VERTEX
  5
165A
  8
TOPPASTE
 10
1296.8699996000000283
 20
1269.6000008000000889
 30
0.0
 42
1.0
  0
SEQEND
  5
165B
  8
TOPPASTE
  0
POLYLINE
  5
1B6
  8
TOPPASTE
 66
     1
 10
0.0
 20
0.0
 30
0.0
 70
     1
 40
0.3999992
 41
0.3999992
  0
VERTEX
  5
165C
  8
TOPPASTE
 10
1296.4700003999998899
 20
1270.3999991999999111
 30
0.0
 42
1.0
  0
VERTEX
  5
165D
  8
TOPPASTE
 10
1296.8699996000000283
 20
1270.3999991999999111
 30
0.0
 42
1.0
  0
SEQEND
  5
165E
  8
TOPPASTE
  0
POLYLINE
  5
1B7
  8
TOPSOLDER
 66
     1
 10
0.0
 20
0.0
 30
0.0
 40
1.003200939999999
 41
1.003200939999999
  0
VERTEX
  5
165F
  8
TOPSOLDER
 10
1296.6700000000000728
 20
1269.6000008000000889
 30
0.0
  0
VERTEX
  5
1660
  8
TOPSOLDER
 10
1296.6700000000000728
 20
1270.3999991999999111
 30
0.0
  0
SEQEND
  5
1661
  8
TOPSOLDER
  0
POLYLINE
  5
1B8
  8
TOPSOLDER
 66
     1
 10
0.0
 20
0.0
 30
0.0
 70
     1
 40
0.5015992000000002
 41
0.5015992000000002
  0
VERTEX
  5
1662
  8
TOPSOLDER
 10
1296.4192003999999088
 20
1269.6000008000000889
 30
0.0
 42
1.0
  0
VERTEX
  5
1663
  8
TOPSOLDER
 10
1296.9207996000000094
 20
1269.6000008000000889
 30
0.0
 42
1.0
  0
SEQEND
  5
1664
  8
TOPSOLDER
  0
POLYLINE
  5
1B9
  8
TOPSOLDER
 66
     1
 10
0.0
 20
0.0
 30
0.0
 70
     1
 40
0.5015992000000002
 41
0.5015992000000002
  0
VERTEX
  5
1665
  8
TOPSOLDER
 10
1296.4192003999999088
 20
1270.3999991999999111
 30
0.0
 42
1.0
  0
VERTEX
  5
1666
  8
TOPSOLDER
 10
1296.9207996000000094
 20
1270.3999991999999111
 30
0.0
 42
1.0
  0
SEQEND
  5
1667
  8
TOPSOLDER
  0
POLYLINE
  5
1BA
  8
TOPLAYER
 66
     1
 10
0.0
 20
0.0
 30
0.0
 40
0.8000009399999999
 41
0.8000009399999999
  0
VERTEX
  5
1668
  8
TOPLAYER
 10
1296.6700000000000728
 20
1269.6000008000000889
 30
0.0
  0
VERTEX
  5
1669
  8
TOPLAYER
 10
1296.6700000000000728
 20
1270.3999991999999111
 30
0.0
  0
SEQEND
  5
166A
  8
TOPLAYER
  0
POLYLINE
  5
1BB
  8
TOPLAYER
 66
     1
 10
0.0
 20
0.0
 30
0.0
 70
     1
 40
0.3999992
 41
0.3999992
  0
VERTEX
  5
166B
  8
TOPLAYER
 10
1296.4700003999998899
 20
1269.6000008000000889
 30
0.0
 42
1.0
  0
VERTEX
  5
166C
  8
TOPLAYER
 10
1296.8699996000000283
 20
1269.6000008000000889
 30
0.0
 42
1.0
  0
SEQEND
  5
166D
  8
TOPLAYER
  0
POLYLINE
  5
1BC
  8
TOPLAYER
 66
     1
 10
0.0
 20
0.0
 30
0.0
 70
     1
 40
0.3999992
 41
0.3999992
  0
VERTEX
  5
166E
  8
TOPLAYER
 10
1296.4700003999998899
 20
1270.3999991999999111
 30
0.0
 42
1.0
  0
VERTEX
  5
166F
  8
TOPLAYER
 10
1296.8699996000000283
 20
1270.3999991999999111
 30
0.0
 42
1.0
  0
SEQEND
  5
1670
  8
TOPLAYER
  0
POLYLINE
  5
1BD
  8
TOPPASTE
 66
     1
 10
0.0
 20
0.0
 30
0.0
 40
0.8000009399999999
 41
0.8000009399999999
  0
VERTEX
  5
1671
  8
TOPPASTE
 10
1295.4000000000000909
 20
1269.6000008000000889
 30
0.0
  0
VERTEX
  5
1672
  8
TOPPASTE
 10
1295.4000000000000909
 20
1270.3999991999999111
 30
0.0
  0
SEQEND
  5
1673
  8
TOPPASTE
  0
POLYLINE
  5
1BE
  8
TOPPASTE
 66
     1
 10
0.0
 20
0.0
 30
0.0
 70
     1
 40
0.3999992
 41
0.3999992
  0
VERTEX
  5
1674
  8
TOPPASTE
 10
1295.200000399999908
 20
1269.6000008000000889
 30
0.0
 42
1.0
  0
VERTEX
  5
1675
  8
TOPPASTE
 10
1295.5999996000000465
 20
1269.6000008000000889
 30
0.0
 42
1.0
  0
SEQEND
  5
1676
  8
TOPPASTE
  0
POLYLINE
  5
1BF
  8
TOPPASTE
 66
     1
 10
0.0
 20
0.0
 30
0.0
 70
     1
 40
0.3999992
 41
0.3999992
  0
VERTEX
  5
1677
  8
TOPPASTE
 10
1295.200000399999908
 20
1270.3999991999999111
 30
0.0
 42
1.0
  0
VERTEX
  5
1678
  8
TOPPASTE
 10
1295.5999996000000465
 20
1270.3999991999999111
 30
0.0
 42
1.0
  0
SEQEND
  5
1679
  8
TOPPASTE
  0
POLYLINE
  5
1C0
  8
TOPSOLDER
 66
     1
 10
0.0
 20
0.0
 30
0.0
 40
1.003200939999999
 41
1.003200939999999
  0
VERTEX
  5
167A
  8
TOPSOLDER
 10
1295.4000000000000909
 20
1269.6000008000000889
 30
0.0
  0
VERTEX
  5
167B
  8
TOPSOLDER
 10
1295.4000000000000909
 20
1270.3999991999999111
 30
0.0
  0
SEQEND
  5
167C
  8
TOPSOLDER
  0
POLYLINE
  5
1C1
  8
TOPSOLDER
 66
     1
 10
0.0
 20
0.0
 30
0.0
 70
     1
 40
0.5015992000000002
 41
0.5015992000000002
  0
VERTEX
  5
167D
  8
TOPSOLDER
 10
1295.149200399999927
 20
1269.6000008000000889
 30
0.0
 42
1.0
  0
VERTEX
  5
167E
  8
TOPSOLDER
 10
1295.6507996000000276
 20
1269.6000008000000889
 30
0.0
 42
1.0
  0
SEQEND
  5
167F
  8
TOPSOLDER
  0
POLYLINE
  5
1C2
  8
TOPSOLDER
 66
     1
 10
0.0
 20
0.0
 30
0.0
 70
     1
 40
0.5015992000000002
 41
0.5015992000000002
  0
VERTEX
  5
1680
  8
TOPSOLDER
 10
1295.149200399999927
 20
1270.3999991999999111
 30
0.0
 42
1.0
  0
VERTEX
  5
1681
  8
TOPSOLDER
 10
1295.6507996000000276
 20
1270.3999991999999111
 30
0.0
 42
1.0
  0
SEQEND
  5
1682
  8
TOPSOLDER
  0
POLYLINE
  5
1C3
  8
TOPLAYER
 66
     1
 10
0.0
 20
0.0
 30
0.0
 40
0.8000009399999999
 41
0.8000009399999999
  0
VERTEX
  5
1683
  8
TOPLAYER
 10
1295.4000000000000909
 20
1269.6000008000000889
 30
0.0
  0
VERTEX
  5
1684
  8
TOPLAYER
 10
1295.4000000000000909
 20
1270.3999991999999111
 30
0.0
  0
SEQEND
  5
1685
  8
TOPLAYER
  0
POLYLINE
  5
1C4
  8
TOPLAYER
 66
     1
 10
0.0
 20
0.0
 30
0.0
 70
     1
 40
0.3999992
 41
0.3999992
  0
VERTEX
  5
1686
  8
TOPLAYER
 10
1295.200000399999908
 20
1269.6000008000000889
 30
0.0
 42
1.0
  0
VERTEX
  5
1687
  8
TOPLAYER
 10
1295.5999996000000465
 20
1269.6000008000000889
 30
0.0
 42
1.0
  0
SEQEND
  5
1688
  8
TOPLAYER
  0
POLYLINE
  5
1C5
  8
TOPLAYER
 66
     1
 10
0.0
 20
0.0
 30
0.0
 70
     1
 40
0.3999992
 41
0.3999992
  0
VERTEX
  5
1689
  8
TOPLAYER
 10
1295.200000399999908
 20
1270.3999991999999111
 30
0.0
 42
1.0
  0
VERTEX
  5
168A
  8
TOPLAYER
 10
1295.5999996000000465
 20
1270.3999991999999111
 30
0.0
 42
1.0
  0
SEQEND
  5
168B
  8
TOPLAYER
  0
POLYLINE
  5
1C6
  8
TOPPASTE
 66
     1
 10
0.0
 20
0.0
 30
0.0
 40
0.8000009399999999
 41
0.8000009399999999
  0
VERTEX
  5
168C
  8
TOPPASTE
 10
1294.1300000000001091
 20
1269.6000008000000889
 30
0.0
  0
VERTEX
  5
168D
  8
TOPPASTE
 10
1294.1300000000001091
 20
1270.3999991999999111
 30
0.0
  0
SEQEND
  5
168E
  8
TOPPASTE
  0
POLYLINE
  5
1C7
  8
TOPPASTE
 66
     1
 10
0.0
 20
0.0
 30
0.0
 70
     1
 40
0.3999992
 41
0.3999992
  0
VERTEX
  5
168F
  8
TOPPASTE
 10
1293.9300003999999262
 20
1269.6000008000000889
 30
0.0
 42
1.0
  0
VERTEX
  5
1690
  8
TOPPASTE
 10
1294.3299996000000647
 20
1269.6000008000000889
 30
0.0
 42
1.0
  0
SEQEND
  5
1691
  8
TOPPASTE
  0
POLYLINE
  5
1C8
  8
TOPPASTE
 66
     1
 10
0.0
 20
0.0
 30
0.0
 70
     1
 40
0.3999992
 41
0.3999992
  0
VERTEX
  5
1692
  8
TOPPASTE
 10
1293.9300003999999262
 20
1270.3999991999999111
 30
0.0
 42
1.0
  0
VERTEX
  5
1693
  8
TOPPASTE
 10
1294.3299996000000647
 20
1270.3999991999999111
 30
0.0
 42
1.0
  0
SEQEND
  5
1694
  8
TOPPASTE
  0
POLYLINE
  5
1C9
  8
TOPSOLDER
 66
     1
 10
0.0
 20
0.0
 30
0.0
 40
1.003200939999999
 41
1.003200939999999
  0
VERTEX
  5
1695
  8
TOPSOLDER
 10
1294.1300000000001091
 20
1269.6000008000000889
 30
0.0
  0
VERTEX
  5
1696
  8
TOPSOLDER
 10
1294.1300000000001091
 20
1270.3999991999999111
 30
0.0
  0
SEQEND
  5
1697
  8
TOPSOLDER
  0
POLYLINE
  5
1CA
  8
TOPSOLDER
 66
     1
 10
0.0
 20
0.0
 30
0.0
 70
     1
 40
0.5015992000000002
 41
0.5015992000000002
  0
VERTEX
  5
1698
  8
TOPSOLDER
 10
1293.8792003999999451
 20
1269.6000008000000889
 30
0.0
 42
1.0
  0
VERTEX
  5
1699
  8
TOPSOLDER
 10
1294.3807996000000458
 20
1269.6000008000000889
 30
0.0
 42
1.0
  0
SEQEND
  5
169A
  8
TOPSOLDER
  0
POLYLINE
  5
1CB
  8
TOPSOLDER
 66
     1
 10
0.0
 20
0.0
 30
0.0
 70
     1
 40
0.5015992000000002
 41
0.5015992000000002
  0
VERTEX
  5
169B
  8
TOPSOLDER
 10
1293.8792003999999451
 20
1270.3999991999999111
 30
0.0
 42
1.0
  0
VERTEX
  5
169C
  8
TOPSOLDER
 10
1294.3807996000000458
 20
1270.3999991999999111
 30
0.0
 42
1.0
  0
SEQEND
  5
169D
  8
TOPSOLDER
  0
POLYLINE
  5
1CC
  8
TOPLAYER
 66
     1
 10
0.0
 20
0.0
 30
0.0
 40
0.8000009399999999
 41
0.8000009399999999
  0
VERTEX
  5
169E
  8
TOPLAYER
 10
1294.1300000000001091
 20
1269.6000008000000889
 30
0.0
  0
VERTEX
  5
169F
  8
TOPLAYER
 10
1294.1300000000001091
 20
1270.3999991999999111
 30
0.0
  0
SEQEND
  5
16A0
  8
TOPLAYER
  0
POLYLINE
  5
1CD
  8
TOPLAYER
 66
     1
 10
0.0
 20
0.0
 30
0.0
 70
     1
 40
0.3999992
 41
0.3999992
  0
VERTEX
  5
16A1
  8
TOPLAYER
 10
1293.9300003999999262
 20
1269.6000008000000889
 30
0.0
 42
1.0
  0
VERTEX
  5
16A2
  8
TOPLAYER
 10
1294.3299996000000647
 20
1269.6000008000000889
 30
0.0
 42
1.0
  0
SEQEND
  5
16A3
  8
TOPLAYER
  0
POLYLINE
  5
1CE
  8
TOPLAYER
 66
     1
 10
0.0
 20
0.0
 30
0.0
 70
     1
 40
0.3999992
 41
0.3999992
  0
VERTEX
  5
16A4
  8
TOPLAYER
 10
1293.9300003999999262
 20
1270.3999991999999111
 30
0.0
 42
1.0
  0
VERTEX
  5
16A5
  8
TOPLAYER
 10
1294.3299996000000647
 20
1270.3999991999999111
 30
0.0
 42
1.0
  0
SEQEND
  5
16A6
  8
TOPLAYER
  0
POLYLINE
  5
1CF
  8
TOPPASTE
 66
     1
 10
0.0
 20
0.0
 30
0.0
 40
0.8000009399999999
 41
0.8000009399999999
  0
VERTEX
  5
16A7
  8
TOPPASTE
 10
1292.8599999999999
 20
1269.6000008000000889
 30
0.0
  0
VERTEX
  5
16A8
  8
TOPPASTE
 10
1292.8599999999999
 20
1270.3999991999999111
 30
0.0
  0
SEQEND
  5
16A9
  8
TOPPASTE
  0
POLYLINE
  5
1D0
  8
TOPPASTE
 66
     1
 10
0.0
 20
0.0
 30
0.0
 70
     1
 40
0.3999992
 41
0.3999992
  0
VERTEX
  5
16AA
  8
TOPPASTE
 10
1292.6600003999999444
 20
1269.6000008000000889
 30
0.0
 42
1.0
  0
VERTEX
  5
16AB
  8
TOPPASTE
 10
1293.0599996000000829
 20
1269.6000008000000889
 30
0.0
 42
1.0
  0
SEQEND
  5
16AC
  8
TOPPASTE
  0
POLYLINE
  5
1D1
  8
TOPPASTE
 66
     1
 10
0.0
 20
0.0
 30
0.0
 70
     1
 40
0.3999992
 41
0.3999992
  0
VERTEX
  5
16AD
  8
TOPPASTE
 10
1292.6600003999999444
 20
1270.3999991999999111
 30
0.0
 42
1.0
  0
VERTEX
  5
16AE
  8
TOPPASTE
 10
1293.0599996000000829
 20
1270.3999991999999111
 30
0.0
 42
1.0
  0
SEQEND
  5
16AF
  8
TOPPASTE
  0
POLYLINE
  5
1D2
  8
TOPSOLDER
 66
     1
 10
0.0
 20
0.0
 30
0.0
 40
1.003200939999999
 41
1.003200939999999
  0
VERTEX
  5
16B0
  8
TOPSOLDER
 10
1292.8599999999999
 20
1269.6000008000000889
 30
0.0
  0
VERTEX
  5
16B1
  8
TOPSOLDER
 10
1292.8599999999999
 20
1270.3999991999999111
 30
0.0
  0
SEQEND
  5
16B2
  8
TOPSOLDER
  0
POLYLINE
  5
1D3
  8
TOPSOLDER
 66
     1
 10
0.0
 20
0.0
 30
0.0
 70
     1
 40
0.5015992000000002
 41
0.5015992000000002
  0
VERTEX
  5
16B3
  8
TOPSOLDER
 10
1292.6092003999999633
 20
1269.6000008000000889
 30
0.0
 42
1.0
  0
VERTEX
  5
16B4
  8
TOPSOLDER
 10
1293.1107996000000639
 20
1269.6000008000000889
 30
0.0
 42
1.0
  0
SEQEND
  5
16B5
  8
TOPSOLDER
  0
POLYLINE
  5
1D4
  8
TOPSOLDER
 66
     1
 10
0.0
 20
0.0
 30
0.0
 70
     1
 40
0.5015992000000002
 41
0.5015992000000002
  0
VERTEX
  5
16B6
  8
TOPSOLDER
 10
1292.6092003999999633
 20
1270.3999991999999111
 30
0.0
 42
1.0
  0
VERTEX
  5
16B7
  8
TOPSOLDER
 10
1293.1107996000000639
 20
1270.3999991999999111
 30
0.0
 42
1.0
  0
SEQEND
  5
16B8
  8
TOPSOLDER
  0
POLYLINE
  5
1D5
  8
TOPLAYER
 66
     1
 10
0.0
 20
0.0
 30
0.0
 40
0.8000009399999999
 41
0.8000009399999999
  0
VERTEX
  5
16B9
  8
TOPLAYER
 10
1292.8599999999999
 20
1269.6000008000000889
 30
0.0
  0
VERTEX
  5
16BA
  8
TOPLAYER
 10
1292.8599999999999
 20
1270.3999991999999111
 30
0.0
  0
SEQEND
  5
16BB
  8
TOPLAYER
  0
POLYLINE
  5
1D6
  8
TOPLAYER
 66
     1
 10
0.0
 20
0.0
 30
0.0
 70
     1
 40
0.3999992
 41
0.3999992
  0
VERTEX
  5
16BC
  8
TOPLAYER
 10
1292.6600003999999444
 20
1269.6000008000000889
 30
0.0
 42
1.0
  0
VERTEX
  5
16BD
  8
TOPLAYER
 10
1293.0599996000000829
 20
1269.6000008000000889
 30
0.0
 42
1.0
  0
SEQEND
  5
16BE
  8
TOPLAYER
  0
POLYLINE
  5
1D7
  8
TOPLAYER
 66
     1
 10
0.0
 20
0.0
 30
0.0
 70
     1
 40
0.3999992
 41
0.3999992
  0
VERTEX
  5
16BF
  8
TOPLAYER
 10
1292.6600003999999444
 20
1270.3999991999999111
 30
0.0
 42
1.0
  0
VERTEX
  5
16C0
  8
TOPLAYER
 10
1293.0599996000000829
 20
1270.3999991999999111
 30
0.0
 42
1.0
  0
SEQEND
  5
16C1
  8
TOPLAYER
  0
POLYLINE
  5
1D8
  8
TOPPASTE
 66
     1
 10
0.0
 20
0.0
 30
0.0
 40
0.8000009399999999
 41
0.8000009399999999
  0
VERTEX
  5
16C2
  8
TOPPASTE
 10
1291.5899999999999181
 20
1269.6000008000000889
 30
0.0
  0
VERTEX
  5
16C3
  8
TOPPASTE
 10
1291.5899999999999181
 20
1270.3999991999999111
 30
0.0
  0
SEQEND
  5
16C4
  8
TOPPASTE
  0
POLYLINE
  5
1D9
  8
TOPPASTE
 66
     1
 10
0.0
 20
0.0
 30
0.0
 70
     1
 40
0.3999992
 41
0.3999992
  0
VERTEX
  5
16C5
  8
TOPPASTE
 10
1291.3900003999999626
 20
1269.6000008000000889
 30
0.0
 42
1.0
  0
VERTEX
  5
16C6
  8
TOPPASTE
 10
1291.7899996000001011
 20
1269.6000008000000889
 30
0.0
 42
1.0
  0
SEQEND
  5
16C7
  8
TOPPASTE
  0
POLYLINE
  5
1DA
  8
TOPPASTE
 66
     1
 10
0.0
 20
0.0
 30
0.0
 70
     1
 40
0.3999992
 41
0.3999992
  0
VERTEX
  5
16C8
  8
TOPPASTE
 10
1291.3900003999999626
 20
1270.3999991999999111
 30
0.0
 42
1.0
  0
VERTEX
  5
16C9
  8
TOPPASTE
 10
1291.7899996000001011
 20
1270.3999991999999111
 30
0.0
 42
1.0
  0
SEQEND
  5
16CA
  8
TOPPASTE
  0
POLYLINE
  5
1DB
  8
TOPSOLDER
 66
     1
 10
0.0
 20
0.0
 30
0.0
 40
1.003200939999999
 41
1.003200939999999
  0
VERTEX
  5
16CB
  8
TOPSOLDER
 10
1291.5899999999999181
 20
1269.6000008000000889
 30
0.0
  0
VERTEX
  5
16CC
  8
TOPSOLDER
 10
1291.5899999999999181
 20
1270.3999991999999111
 30
0.0
  0
SEQEND
  5
16CD
  8
TOPSOLDER
  0
POLYLINE
  5
1DC
  8
TOPSOLDER
 66
     1
 10
0.0
 20
0.0
 30
0.0
 70
     1
 40
0.5015992000000002
 41
0.5015992000000002
  0
VERTEX
  5
16CE
  8
TOPSOLDER
 10
1291.3392003999999815
 20
1269.6000008000000889
 30
0.0
 42
1.0
  0
VERTEX
  5
16CF
  8
TOPSOLDER
 10
1291.8407996000000821
 20
1269.6000008000000889
 30
0.0
 42
1.0
  0
SEQEND
  5
16D0
  8
TOPSOLDER
  0
POLYLINE
  5
1DD
  8
TOPSOLDER
 66
     1
 10
0.0
 20
0.0
 30
0.0
 70
     1
 40
0.5015992000000002
 41
0.5015992000000002
  0
VERTEX
  5
16D1
  8
TOPSOLDER
 10
1291.3392003999999815
 20
1270.3999991999999111
 30
0.0
 42
1.0
  0
VERTEX
  5
16D2
  8
TOPSOLDER
 10
1291.8407996000000821
 20
1270.3999991999999111
 30
0.0
 42
1.0
  0
SEQEND
  5
16D3
  8
TOPSOLDER
  0
POLYLINE
  5
1DE
  8
TOPLAYER
 66
     1
 10
0.0
 20
0.0
 30
0.0
 40
0.8000009399999999
 41
0.8000009399999999
  0
VERTEX
  5
16D4
  8
TOPLAYER
 10
1291.5899999999999181
 20
1269.6000008000000889
 30
0.0
  0
VERTEX
  5
16D5
  8
TOPLAYER
 10
1291.5899999999999181
 20
1270.3999991999999111
 30
0.0
  0
SEQEND
  5
16D6
  8
TOPLAYER
  0
POLYLINE
  5
1DF
  8
TOPLAYER
 66
     1
 10
0.0
 20
0.0
 30
0.0
 70
     1
 40
0.3999992
 41
0.3999992
  0
VERTEX
  5
16D7
  8
TOPLAYER
 10
1291.3900003999999626
 20
1269.6000008000000889
 30
0.0
 42
1.0
  0
VERTEX
  5
16D8
  8
TOPLAYER
 10
1291.7899996000001011
 20
1269.6000008000000889
 30
0.0
 42
1.0
  0
SEQEND
  5
16D9
  8
TOPLAYER
  0
POLYLINE
  5
1E0
  8
TOPLAYER
 66
     1
 10
0.0
 20
0.0
 30
0.0
 70
     1
 40
0.3999992
 41
0.3999992
  0
VERTEX
  5
16DA
  8
TOPLAYER
 10
1291.3900003999999626
 20
1270.3999991999999111
 30
0.0
 42
1.0
  0
VERTEX
  5
16DB
  8
TOPLAYER
 10
1291.7899996000001011
 20
1270.3999991999999111
 30
0.0
 42
1.0
  0
SEQEND
  5
16DC
  8
TOPLAYER
  0
POLYLINE
  5
1E1
  8
TOPPASTE
 66
     1
 10
0.0
 20
0.0
 30
0.0
 40
0.8000009399999999
 41
0.8000009399999999
  0
VERTEX
  5
16DD
  8
TOPPASTE
 10
1290.3199999999999363
 20
1269.6000008000000889
 30
0.0
  0
VERTEX
  5
16DE
  8
TOPPASTE
 10
1290.3199999999999363
 20
1270.3999991999999111
 30
0.0
  0
SEQEND
  5
16DF
  8
TOPPASTE
  0
POLYLINE
  5
1E2
  8
TOPPASTE
 66
     1
 10
0.0
 20
0.0
 30
0.0
 70
     1
 40
0.3999992
 41
0.3999992
  0
VERTEX
  5
16E0
  8
TOPPASTE
 10
1290.1200003999999808
 20
1269.6000008000000889
 30
0.0
 42
1.0
  0
VERTEX
  5
16E1
  8
TOPPASTE
 10
1290.5199995999998919
 20
1269.6000008000000889
 30
0.0
 42
1.0
  0
SEQEND
  5
16E2
  8
TOPPASTE
  0
POLYLINE
  5
1E3
  8
TOPPASTE
 66
     1
 10
0.0
 20
0.0
 30
0.0
 70
     1
 40
0.3999992
 41
0.3999992
  0
VERTEX
  5
16E3
  8
TOPPASTE
 10
1290.1200003999999808
 20
1270.3999991999999111
 30
0.0
 42
1.0
  0
VERTEX
  5
16E4
  8
TOPPASTE
 10
1290.5199995999998919
 20
1270.3999991999999111
 30
0.0
 42
1.0
  0
SEQEND
  5
16E5
  8
TOPPASTE
  0
POLYLINE
  5
1E4
  8
TOPSOLDER
 66
     1
 10
0.0
 20
0.0
 30
0.0
 40
1.003200939999999
 41
1.003200939999999
  0
VERTEX
  5
16E6
  8
TOPSOLDER
 10
1290.3199999999999363
 20
1269.6000008000000889
 30
0.0
  0
VERTEX
  5
16E7
  8
TOPSOLDER
 10
1290.3199999999999363
 20
1270.3999991999999111
 30
0.0
  0
SEQEND
  5
16E8
  8
TOPSOLDER
  0
POLYLINE
  5
1E5
  8
TOPSOLDER
 66
     1
 10
0.0
 20
0.0
 30
0.0
 70
     1
 40
0.5015992000000002
 41
0.5015992000000002
  0
VERTEX
  5
16E9
  8
TOPSOLDER
 10
1290.0692003999999997
 20
1269.6000008000000889
 30
0.0
 42
1.0
  0
VERTEX
  5
16EA
  8
TOPSOLDER
 10
1290.5707996000001003
 20
1269.6000008000000889
 30
0.0
 42
1.0
  0
SEQEND
  5
16EB
  8
TOPSOLDER
  0
POLYLINE
  5
1E6
  8
TOPSOLDER
 66
     1
 10
0.0
 20
0.0
 30
0.0
 70
     1
 40
0.5015992000000002
 41
0.5015992000000002
  0
VERTEX
  5
16EC
  8
TOPSOLDER
 10
1290.0692003999999997
 20
1270.3999991999999111
 30
0.0
 42
1.0
  0
VERTEX
  5
16ED
  8
TOPSOLDER
 10
1290.5707996000001003
 20
1270.3999991999999111
 30
0.0
 42
1.0
  0
SEQEND
  5
16EE
  8
TOPSOLDER
  0
POLYLINE
  5
1E7
  8
TOPLAYER
 66
     1
 10
0.0
 20
0.0
 30
0.0
 40
0.8000009399999999
 41
0.8000009399999999
  0
VERTEX
  5
16EF
  8
TOPLAYER
 10
1290.3199999999999363
 20
1269.6000008000000889
 30
0.0
  0
VERTEX
  5
16F0
  8
TOPLAYER
 10
1290.3199999999999363
 20
1270.3999991999999111
 30
0.0
  0
SEQEND
  5
16F1
  8
TOPLAYER
  0
POLYLINE
  5
1E8
  8
TOPLAYER
 66
     1
 10
0.0
 20
0.0
 30
0.0
 70
     1
 40
0.3999992
 41
0.3999992
  0
VERTEX
  5
16F2
  8
TOPLAYER
 10
1290.1200003999999808
 20
1269.6000008000000889
 30
0.0
 42
1.0
  0
VERTEX
  5
16F3
  8
TOPLAYER
 10
1290.5199995999998919
 20
1269.6000008000000889
 30
0.0
 42
1.0
  0
SEQEND
  5
16F4
  8
TOPLAYER
  0
POLYLINE
  5
1E9
  8
TOPLAYER
 66
     1
 10
0.0
 20
0.0
 30
0.0
 70
     1
 40
0.3999992
 41
0.3999992
  0
VERTEX
  5
16F5
  8
TOPLAYER
 10
1290.1200003999999808
 20
1270.3999991999999111
 30
0.0
 42
1.0
  0
VERTEX
  5
16F6
  8
TOPLAYER
 10
1290.5199995999998919
 20
1270.3999991999999111
 30
0.0
 42
1.0
  0
SEQEND
  5
16F7
  8
TOPLAYER
  0
POLYLINE
  5
1EA
  8
TOPPASTE
 66
     1
 10
0.0
 20
0.0
 30
0.0
 40
0.8000009399999999
 41
0.8000009399999999
  0
VERTEX
  5
16F8
  8
TOPPASTE
 10
1289.0499999999999545
 20
1269.6000008000000889
 30
0.0
  0
VERTEX
  5
16F9
  8
TOPPASTE
 10
1289.0499999999999545
 20
1270.3999991999999111
 30
0.0
  0
SEQEND
  5
16FA
  8
TOPPASTE
  0
POLYLINE
  5
1EB
  8
TOPPASTE
 66
     1
 10
0.0
 20
0.0
 30
0.0
 70
     1
 40
0.3999992
 41
0.3999992
  0
VERTEX
  5
16FB
  8
TOPPASTE
 10
1288.850000399999999
 20
1269.6000008000000889
 30
0.0
 42
1.0
  0
VERTEX
  5
16FC
  8
TOPPASTE
 10
1289.2499995999999101
 20
1269.6000008000000889
 30
0.0
 42
1.0
  0
SEQEND
  5
16FD
  8
TOPPASTE
  0
POLYLINE
  5
1EC
  8
TOPPASTE
 66
     1
 10
0.0
 20
0.0
 30
0.0
 70
     1
 40
0.3999992
 41
0.3999992
  0
VERTEX
  5
16FE
  8
TOPPASTE
 10
1288.850000399999999
 20
1270.3999991999999111
 30
0.0
 42
1.0
  0
VERTEX
  5
16FF
  8
TOPPASTE
 10
1289.2499995999999101
 20
1270.3999991999999111
 30
0.0
 42
1.0
  0
SEQEND
  5
1700
  8
TOPPASTE
  0
POLYLINE
  5
1ED
  8
TOPSOLDER
 66
     1
 10
0.0
 20
0.0
 30
0.0
 40
1.003200939999999
 41
1.003200939999999
  0
VERTEX
  5
1701
  8
TOPSOLDER
 10
1289.0499999999999545
 20
1269.6000008000000889
 30
0.0
  0
VERTEX
  5
1702
  8
TOPSOLDER
 10
1289.0499999999999545
 20
1270.3999991999999111
 30
0.0
  0
SEQEND
  5
1703
  8
TOPSOLDER
  0
POLYLINE
  5
1EE
  8
TOPSOLDER
 66
     1
 10
0.0
 20
0.0
 30
0.0
 70
     1
 40
0.5015992000000002
 41
0.5015992000000002
  0
VERTEX
  5
1704
  8
TOPSOLDER
 10
1288.7992004000000179
 20
1269.6000008000000889
 30
0.0
 42
1.0
  0
VERTEX
  5
1705
  8
TOPSOLDER
 10
1289.3007995999998911
 20
1269.6000008000000889
 30
0.0
 42
1.0
  0
SEQEND
  5
1706
  8
TOPSOLDER
  0
POLYLINE
  5
1EF
  8
TOPSOLDER
 66
     1
 10
0.0
 20
0.0
 30
0.0
 70
     1
 40
0.5015992000000002
 41
0.5015992000000002
  0
VERTEX
  5
1707
  8
TOPSOLDER
 10
1288.7992004000000179
 20
1270.3999991999999111
 30
0.0
 42
1.0
  0
VERTEX
  5
1708
  8
TOPSOLDER
 10
1289.3007995999998911
 20
1270.3999991999999111
 30
0.0
 42
1.0
  0
SEQEND
  5
1709
  8
TOPSOLDER
  0
POLYLINE
  5
1F0
  8
TOPLAYER
 66
     1
 10
0.0
 20
0.0
 30
0.0
 40
0.8000009399999999
 41
0.8000009399999999
  0
VERTEX
  5
170A
  8
TOPLAYER
 10
1289.0499999999999545
 20
1269.6000008000000889
 30
0.0
  0
VERTEX
  5
170B
  8
TOPLAYER
 10
1289.0499999999999545
 20
1270.3999991999999111
 30
0.0
  0
SEQEND
  5
170C
  8
TOPLAYER
  0
POLYLINE
  5
1F1
  8
TOPLAYER
 66
     1
 10
0.0
 20
0.0
 30
0.0
 70
     1
 40
0.3999992
 41
0.3999992
  0
VERTEX
  5
170D
  8
TOPLAYER
 10
1288.850000399999999
 20
1269.6000008000000889
 30
0.0
 42
1.0
  0
VERTEX
  5
170E
  8
TOPLAYER
 10
1289.2499995999999101
 20
1269.6000008000000889
 30
0.0
 42
1.0
  0
SEQEND
  5
170F
  8
TOPLAYER
  0
POLYLINE
  5
1F2
  8
TOPLAYER
 66
     1
 10
0.0
 20
0.0
 30
0.0
 70
     1
 40
0.3999992
 41
0.3999992
  0
VERTEX
  5
1710
  8
TOPLAYER
 10
1288.850000399999999
 20
1270.3999991999999111
 30
0.0
 42
1.0
  0
VERTEX
  5
1711
  8
TOPLAYER
 10
1289.2499995999999101
 20
1270.3999991999999111
 30
0.0
 42
1.0
  0
SEQEND
  5
1712
  8
TOPLAYER
  0
POLYLINE
  5
1F3
  8
TOPPASTE
 66
     1
 10
0.0
 20
0.0
 30
0.0
 40
0.8000009399999999
 41
0.8000009399999999
  0
VERTEX
  5
1713
  8
TOPPASTE
 10
1287.7799999999999727
 20
1269.6000008000000889
 30
0.0
  0
VERTEX
  5
1714
  8
TOPPASTE
 10
1287.7799999999999727
 20
1270.3999991999999111
 30
0.0
  0
SEQEND
  5
1715
  8
TOPPASTE
  0
POLYLINE
  5
1F4
  8
TOPPASTE
 66
     1
 10
0.0
 20
0.0
 30
0.0
 70
     1
 40
0.3999992
 41
0.3999992
  0
VERTEX
  5
1716
  8
TOPPASTE
 10
1287.5800004000000172
 20
1269.6000008000000889
 30
0.0
 42
1.0
  0
VERTEX
  5
1717
  8
TOPPASTE
 10
1287.9799995999999283
 20
1269.6000008000000889
 30
0.0
 42
1.0
  0
SEQEND
  5
1718
  8
TOPPASTE
  0
POLYLINE
  5
1F5
  8
TOPPASTE
 66
     1
 10
0.0
 20
0.0
 30
0.0
 70
     1
 40
0.3999992
 41
0.3999992
  0
VERTEX
  5
1719
  8
TOPPASTE
 10
1287.5800004000000172
 20
1270.3999991999999111
 30
0.0
 42
1.0
  0
VERTEX
  5
171A
  8
TOPPASTE
 10
1287.9799995999999283
 20
1270.3999991999999111
 30
0.0
 42
1.0
  0
SEQEND
  5
171B
  8
TOPPASTE
  0
POLYLINE
  5
1F6
  8
TOPSOLDER
 66
     1
 10
0.0
 20
0.0
 30
0.0
 40
1.003200939999999
 41
1.003200939999999
  0
VERTEX
  5
171C
  8
TOPSOLDER
 10
1287.7799999999999727
 20
1269.6000008000000889
 30
0.0
  0
VERTEX
  5
171D
  8
TOPSOLDER
 10
1287.7799999999999727
 20
1270.3999991999999111
 30
0.0
  0
SEQEND
  5
171E
  8
TOPSOLDER
  0
POLYLINE
  5
1F7
  8
TOPSOLDER
 66
     1
 10
0.0
 20
0.0
 30
0.0
 70
     1
 40
0.5015992000000002
 41
0.5015992000000002
  0
VERTEX
  5
171F
  8
TOPSOLDER
 10
1287.5292004000000361
 20
1269.6000008000000889
 30
0.0
 42
1.0
  0
VERTEX
  5
1720
  8
TOPSOLDER
 10
1288.0307995999999093
 20
1269.6000008000000889
 30
0.0
 42
1.0
  0
SEQEND
  5
1721
  8
TOPSOLDER
  0
POLYLINE
  5
1F8
  8
TOPSOLDER
 66
     1
 10
0.0
 20
0.0
 30
0.0
 70
     1
 40
0.5015992000000002
 41
0.5015992000000002
  0
VERTEX
  5
1722
  8
TOPSOLDER
 10
1287.5292004000000361
 20
1270.3999991999999111
 30
0.0
 42
1.0
  0
VERTEX
  5
1723
  8
TOPSOLDER
 10
1288.0307995999999093
 20
1270.3999991999999111
 30
0.0
 42
1.0
  0
SEQEND
  5
1724
  8
TOPSOLDER
  0
POLYLINE
  5
1F9
  8
TOPLAYER
 66
     1
 10
0.0
 20
0.0
 30
0.0
 40
0.8000009399999999
 41
0.8000009399999999
  0
VERTEX
  5
1725
  8
TOPLAYER
 10
1287.7799999999999727
 20
1269.6000008000000889
 30
0.0
  0
VERTEX
  5
1726
  8
TOPLAYER
 10
1287.7799999999999727
 20
1270.3999991999999111
 30
0.0
  0
SEQEND
  5
1727
  8
TOPLAYER
  0
POLYLINE
  5
1FA
  8
TOPLAYER
 66
     1
 10
0.0
 20
0.0
 30
0.0
 70
     1
 40
0.3999992
 41
0.3999992
  0
VERTEX
  5
1728
  8
TOPLAYER
 10
1287.5800004000000172
 20
1269.6000008000000889
 30
0.0
 42
1.0
  0
VERTEX
  5
1729
  8
TOPLAYER
 10
1287.9799995999999283
 20
1269.6000008000000889
 30
0.0
 42
1.0
  0
SEQEND
  5
172A
  8
TOPLAYER
  0
POLYLINE
  5
1FB
  8
TOPLAYER
 66
     1
 10
0.0
 20
0.0
 30
0.0
 70
     1
 40
0.3999992
 41
0.3999992
  0
VERTEX
  5
172B
  8
TOPLAYER
 10
1287.5800004000000172
 20
1270.3999991999999111
 30
0.0
 42
1.0
  0
VERTEX
  5
172C
  8
TOPLAYER
 10
1287.9799995999999283
 20
1270.3999991999999111
 30
0.0
 42
1.0
  0
SEQEND
  5
172D
  8
TOPLAYER
  0
POLYLINE
  5
1FC
  8
TOPPASTE
 66
     1
 10
0.0
 20
0.0
 30
0.0
 40
0.8000009399999999
 41
0.8000009399999999
  0
VERTEX
  5
172E
  8
TOPPASTE
 10
1286.5099999999999909
 20
1269.6000008000000889
 30
0.0
  0
VERTEX
  5
172F
  8
TOPPASTE
 10
1286.5099999999999909
 20
1270.3999991999999111
 30
0.0
  0
SEQEND
  5
1730
  8
TOPPASTE
  0
POLYLINE
  5
1FD
  8
TOPPASTE
 66
     1
 10
0.0
 20
0.0
 30
0.0
 70
     1
 40
0.3999992
 41
0.3999992
  0
VERTEX
  5
1731
  8
TOPPASTE
 10
1286.3100004000000354
 20
1269.6000008000000889
 30
0.0
 42
1.0
  0
VERTEX
  5
1732
  8
TOPPASTE
 10
1286.7099995999999464
 20
1269.6000008000000889
 30
0.0
 42
1.0
  0
SEQEND
  5
1733
  8
TOPPASTE
  0
POLYLINE
  5
1FE
  8
TOPPASTE
 66
     1
 10
0.0
 20
0.0
 30
0.0
 70
     1
 40
0.3999992
 41
0.3999992
  0
VERTEX
  5
1734
  8
TOPPASTE
 10
1286.3100004000000354
 20
1270.3999991999999111
 30
0.0
 42
1.0
  0
VERTEX
  5
1735
  8
TOPPASTE
 10
1286.7099995999999464
 20
1270.3999991999999111
 30
0.0
 42
1.0
  0
SEQEND
  5
1736
  8
TOPPASTE
  0
POLYLINE
  5
1FF
  8
TOPSOLDER
 66
     1
 10
0.0
 20
0.0
 30
0.0
 40
1.003200939999999
 41
1.003200939999999
  0
VERTEX
  5
1737
  8
TOPSOLDER
 10
1286.5099999999999909
 20
1269.6000008000000889
 30
0.0
  0
VERTEX
  5
1738
  8
TOPSOLDER
 10
1286.5099999999999909
 20
1270.3999991999999111
 30
0.0
  0
SEQEND
  5
1739
  8
TOPSOLDER
  0
POLYLINE
  5
200
  8
TOPSOLDER
 66
     1
 10
0.0
 20
0.0
 30
0.0
 70
     1
 40
0.5015992000000002
 41
0.5015992000000002
  0
VERTEX
  5
173A
  8
TOPSOLDER
 10
1286.2592004000000543
 20
1269.6000008000000889
 30
0.0
 42
1.0
  0
VERTEX
  5
173B
  8
TOPSOLDER
 10
1286.7607995999999275
 20
1269.6000008000000889
 30
0.0
 42
1.0
  0
SEQEND
  5
173C
  8
TOPSOLDER
  0
POLYLINE
  5
201
  8
TOPSOLDER
 66
     1
 10
0.0
 20
0.0
 30
0.0
 70
     1
 40
0.5015992000000002
 41
0.5015992000000002
  0
VERTEX
  5
173D
  8
TOPSOLDER
 10
1286.2592004000000543
 20
1270.3999991999999111
 30
0.0
 42
1.0
  0
VERTEX
  5
173E
  8
TOPSOLDER
 10
1286.7607995999999275
 20
1270.3999991999999111
 30
0.0
 42
1.0
  0
SEQEND
  5
173F
  8
TOPSOLDER
  0
POLYLINE
  5
202
  8
TOPLAYER
 66
     1
 10
0.0
 20
0.0
 30
0.0
 40
0.8000009399999999
 41
0.8000009399999999
  0
VERTEX
  5
1740
  8
TOPLAYER
 10
1286.5099999999999909
 20
1269.6000008000000889
 30
0.0
  0
VERTEX
  5
1741
  8
TOPLAYER
 10
1286.5099999999999909
 20
1270.3999991999999111
 30
0.0
  0
SEQEND
  5
1742
  8
TOPLAYER
  0
POLYLINE
  5
203
  8
TOPLAYER
 66
     1
 10
0.0
 20
0.0
 30
0.0
 70
     1
 40
0.3999992
 41
0.3999992
  0
VERTEX
  5
1743
  8
TOPLAYER
 10
1286.3100004000000354
 20
1269.6000008000000889
 30
0.0
 42
1.0
  0
VERTEX
  5
1744
  8
TOPLAYER
 10
1286.7099995999999464
 20
1269.6000008000000889
 30
0.0
 42
1.0
  0
SEQEND
  5
1745
  8
TOPLAYER
  0
POLYLINE
  5
204
  8
TOPLAYER
 66
     1
 10
0.0
 20
0.0
 30
0.0
 70
     1
 40
0.3999992
 41
0.3999992
  0
VERTEX
  5
1746
  8
TOPLAYER
 10
1286.3100004000000354
 20
1270.3999991999999111
 30
0.0
 42
1.0
  0
VERTEX
  5
1747
  8
TOPLAYER
 10
1286.7099995999999464
 20
1270.3999991999999111
 30
0.0
 42
1.0
  0
SEQEND
  5
1748
  8
TOPLAYER
  0
POLYLINE
  5
205
  8
TOPPASTE
 66
     1
 10
0.0
 20
0.0
 30
0.0
 40
0.8000009399999999
 41
0.8000009399999999
  0
VERTEX
  5
1749
  8
TOPPASTE
 10
1285.2400000000000091
 20
1269.6000008000000889
 30
0.0
  0
VERTEX
  5
174A
  8
TOPPASTE
 10
1285.2400000000000091
 20
1270.3999991999999111
 30
0.0
  0
SEQEND
  5
174B
  8
TOPPASTE
  0
POLYLINE
  5
206
  8
TOPPASTE
 66
     1
 10
0.0
 20
0.0
 30
0.0
 70
     1
 40
0.3999992
 41
0.3999992
  0
VERTEX
  5
174C
  8
TOPPASTE
 10
1285.0400004000000536
 20
1269.6000008000000889
 30
0.0
 42
1.0
  0
VERTEX
  5
174D
  8
TOPPASTE
 10
1285.4399995999999646
 20
1269.6000008000000889
 30
0.0
 42
1.0
  0
SEQEND
  5
174E
  8
TOPPASTE
  0
POLYLINE
  5
207
  8
TOPPASTE
 66
     1
 10
0.0
 20
0.0
 30
0.0
 70
     1
 40
0.3999992
 41
0.3999992
  0
VERTEX
  5
174F
  8
TOPPASTE
 10
1285.0400004000000536
 20
1270.3999991999999111
 30
0.0
 42
1.0
  0
VERTEX
  5
1750
  8
TOPPASTE
 10
1285.4399995999999646
 20
1270.3999991999999111
 30
0.0
 42
1.0
  0
SEQEND
  5
1751
  8
TOPPASTE
  0
POLYLINE
  5
208
  8
TOPSOLDER
 66
     1
 10
0.0
 20
0.0
 30
0.0
 40
1.003200939999999
 41
1.003200939999999
  0
VERTEX
  5
1752
  8
TOPSOLDER
 10
1285.2400000000000091
 20
1269.6000008000000889
 30
0.0
  0
VERTEX
  5
1753
  8
TOPSOLDER
 10
1285.2400000000000091
 20
1270.3999991999999111
 30
0.0
  0
SEQEND
  5
1754
  8
TOPSOLDER
  0
POLYLINE
  5
209
  8
TOPSOLDER
 66
     1
 10
0.0
 20
0.0
 30
0.0
 70
     1
 40
0.5015992000000002
 41
0.5015992000000002
  0
VERTEX
  5
1755
  8
TOPSOLDER
 10
1284.9892004000000725
 20
1269.6000008000000889
 30
0.0
 42
1.0
  0
VERTEX
  5
1756
  8
TOPSOLDER
 10
1285.4907995999999457
 20
1269.6000008000000889
 30
0.0
 42
1.0
  0
SEQEND
  5
1757
  8
TOPSOLDER
  0
POLYLINE
  5
20A
  8
TOPSOLDER
 66
     1
 10
0.0
 20
0.0
 30
0.0
 70
     1
 40
0.5015992000000002
 41
0.5015992000000002
  0
VERTEX
  5
1758
  8
TOPSOLDER
 10
1284.9892004000000725
 20
1270.3999991999999111
 30
0.0
 42
1.0
  0
VERTEX
  5
1759
  8
TOPSOLDER
 10
1285.4907995999999457
 20
1270.3999991999999111
 30
0.0
 42
1.0
  0
SEQEND
  5
175A
  8
TOPSOLDER
  0
POLYLINE
  5
20B
  8
TOPLAYER
 66
     1
 10
0.0
 20
0.0
 30
0.0
 40
0.8000009399999999
 41
0.8000009399999999
  0
VERTEX
  5
175B
  8
TOPLAYER
 10
1285.2400000000000091
 20
1269.6000008000000889
 30
0.0
  0
VERTEX
  5
175C
  8
TOPLAYER
 10
1285.2400000000000091
 20
1270.3999991999999111
 30
0.0
  0
SEQEND
  5
175D
  8
TOPLAYER
  0
POLYLINE
  5
20C
  8
TOPLAYER
 66
     1
 10
0.0
 20
0.0
 30
0.0
 70
     1
 40
0.3999992
 41
0.3999992
  0
VERTEX
  5
175E
  8
TOPLAYER
 10
1285.0400004000000536
 20
1269.6000008000000889
 30
0.0
 42
1.0
  0
VERTEX
  5
175F
  8
TOPLAYER
 10
1285.4399995999999646
 20
1269.6000008000000889
 30
0.0
 42
1.0
  0
SEQEND
  5
1760
  8
TOPLAYER
  0
POLYLINE
  5
20D
  8
TOPLAYER
 66
     1
 10
0.0
 20
0.0
 30
0.0
 70
     1
 40
0.3999992
 41
0.3999992
  0
VERTEX
  5
1761
  8
TOPLAYER
 10
1285.0400004000000536
 20
1270.3999991999999111
 30
0.0
 42
1.0
  0
VERTEX
  5
1762
  8
TOPLAYER
 10
1285.4399995999999646
 20
1270.3999991999999111
 30
0.0
 42
1.0
  0
SEQEND
  5
1763
  8
TOPLAYER
  0
POLYLINE
  5
20E
  8
TOPPASTE
 66
     1
 10
0.0
 20
0.0
 30
0.0
 40
0.8000009399999999
 41
0.8000009399999999
  0
VERTEX
  5
1764
  8
TOPPASTE
 10
1283.9700000000000273
 20
1269.6000008000000889
 30
0.0
  0
VERTEX
  5
1765
  8
TOPPASTE
 10
1283.9700000000000273
 20
1270.3999991999999111
 30
0.0
  0
SEQEND
  5
1766
  8
TOPPASTE
  0
POLYLINE
  5
20F
  8
TOPPASTE
 66
     1
 10
0.0
 20
0.0
 30
0.0
 70
     1
 40
0.3999992
 41
0.3999992
  0
VERTEX
  5
1767
  8
TOPPASTE
 10
1283.7700004000000717
 20
1269.6000008000000889
 30
0.0
 42
1.0
  0
VERTEX
  5
1768
  8
TOPPASTE
 10
1284.1699995999999828
 20
1269.6000008000000889
 30
0.0
 42
1.0
  0
SEQEND
  5
1769
  8
TOPPASTE
  0
POLYLINE
  5
210
  8
TOPPASTE
 66
     1
 10
0.0
 20
0.0
 30
0.0
 70
     1
 40
0.3999992
 41
0.3999992
  0
VERTEX
  5
176A
  8
TOPPASTE
 10
1283.7700004000000717
 20
1270.3999991999999111
 30
0.0
 42
1.0
  0
VERTEX
  5
176B
  8
TOPPASTE
 10
1284.1699995999999828
 20
1270.3999991999999111
 30
0.0
 42
1.0
  0
SEQEND
  5
176C
  8
TOPPASTE
  0
POLYLINE
  5
211
  8
TOPSOLDER
 66
     1
 10
0.0
 20
0.0
 30
0.0
 40
1.003200939999999
 41
1.003200939999999
  0
VERTEX
  5
176D
  8
TOPSOLDER
 10
1283.9700000000000273
 20
1269.6000008000000889
 30
0.0
  0
VERTEX
  5
176E
  8
TOPSOLDER
 10
1283.9700000000000273
 20
1270.3999991999999111
 30
0.0
  0
SEQEND
  5
176F
  8
TOPSOLDER
  0
POLYLINE
  5
212
  8
TOPSOLDER
 66
     1
 10
0.0
 20
0.0
 30
0.0
 70
     1
 40
0.5015992000000002
 41
0.5015992000000002
  0
VERTEX
  5
1770
  8
TOPSOLDER
 10
1283.7192004000000907
 20
1269.6000008000000889
 30
0.0
 42
1.0
  0
VERTEX
  5
1771
  8
TOPSOLDER
 10
1284.2207995999999639
 20
1269.6000008000000889
 30
0.0
 42
1.0
  0
SEQEND
  5
1772
  8
TOPSOLDER
  0
POLYLINE
  5
213
  8
TOPSOLDER
 66
     1
 10
0.0
 20
0.0
 30
0.0
 70
     1
 40
0.5015992000000002
 41
0.5015992000000002
  0
VERTEX
  5
1773
  8
TOPSOLDER
 10
1283.7192004000000907
 20
1270.3999991999999111
 30
0.0
 42
1.0
  0
VERTEX
  5
1774
  8
TOPSOLDER
 10
1284.2207995999999639
 20
1270.3999991999999111
 30
0.0
 42
1.0
  0
SEQEND
  5
1775
  8
TOPSOLDER
  0
POLYLINE
  5
214
  8
TOPLAYER
 66
     1
 10
0.0
 20
0.0
 30
0.0
 40
0.8000009399999999
 41
0.8000009399999999
  0
VERTEX
  5
1776
  8
TOPLAYER
 10
1283.9700000000000273
 20
1269.6000008000000889
 30
0.0
  0
VERTEX
  5
1777
  8
TOPLAYER
 10
1283.9700000000000273
 20
1270.3999991999999111
 30
0.0
  0
SEQEND
  5
1778
  8
TOPLAYER
  0
POLYLINE
  5
215
  8
TOPLAYER
 66
     1
 10
0.0
 20
0.0
 30
0.0
 70
     1
 40
0.3999992
 41
0.3999992
  0
VERTEX
  5
1779
  8
TOPLAYER
 10
1283.7700004000000717
 20
1269.6000008000000889
 30
0.0
 42
1.0
  0
VERTEX
  5
177A
  8
TOPLAYER
 10
1284.1699995999999828
 20
1269.6000008000000889
 30
0.0
 42
1.0
  0
SEQEND
  5
177B
  8
TOPLAYER
  0
POLYLINE
  5
216
  8
TOPLAYER
 66
     1
 10
0.0
 20
0.0
 30
0.0
 70
     1
 40
0.3999992
 41
0.3999992
  0
VERTEX
  5
177C
  8
TOPLAYER
 10
1283.7700004000000717
 20
1270.3999991999999111
 30
0.0
 42
1.0
  0
VERTEX
  5
177D
  8
TOPLAYER
 10
1284.1699995999999828
 20
1270.3999991999999111
 30
0.0
 42
1.0
  0
SEQEND
  5
177E
  8
TOPLAYER
  0
POLYLINE
  5
217
  8
TOPPASTE
 66
     1
 10
0.0
 20
0.0
 30
0.0
 40
0.8000009399999999
 41
0.8000009399999999
  0
VERTEX
  5
177F
  8
TOPPASTE
 10
1282.7000000000000455
 20
1269.6000008000000889
 30
0.0
  0
VERTEX
  5
1780
  8
TOPPASTE
 10
1282.7000000000000455
 20
1270.3999991999999111
 30
0.0
  0
SEQEND
  5
1781
  8
TOPPASTE
  0
POLYLINE
  5
218
  8
TOPPASTE
 66
     1
 10
0.0
 20
0.0
 30
0.0
 70
     1
 40
0.3999992
 41
0.3999992
  0
VERTEX
  5
1782
  8
TOPPASTE
 10
1282.5000004000000899
 20
1269.6000008000000889
 30
0.0
 42
1.0
  0
VERTEX
  5
1783
  8
TOPPASTE
 10
1282.899999600000001
 20
1269.6000008000000889
 30
0.0
 42
1.0
  0
SEQEND
  5
1784
  8
TOPPASTE
  0
POLYLINE
  5
219
  8
TOPPASTE
 66
     1
 10
0.0
 20
0.0
 30
0.0
 70
     1
 40
0.3999992
 41
0.3999992
  0
VERTEX
  5
1785
  8
TOPPASTE
 10
1282.5000004000000899
 20
1270.3999991999999111
 30
0.0
 42
1.0
  0
VERTEX
  5
1786
  8
TOPPASTE
 10
1282.899999600000001
 20
1270.3999991999999111
 30
0.0
 42
1.0
  0
SEQEND
  5
1787
  8
TOPPASTE
  0
POLYLINE
  5
21A
  8
TOPSOLDER
 66
     1
 10
0.0
 20
0.0
 30
0.0
 40
1.003200939999999
 41
1.003200939999999
  0
VERTEX
  5
1788
  8
TOPSOLDER
 10
1282.7000000000000455
 20
1269.6000008000000889
 30
0.0
  0
VERTEX
  5
1789
  8
TOPSOLDER
 10
1282.7000000000000455
 20
1270.3999991999999111
 30
0.0
  0
SEQEND
  5
178A
  8
TOPSOLDER
  0
POLYLINE
  5
21B
  8
TOPSOLDER
 66
     1
 10
0.0
 20
0.0
 30
0.0
 70
     1
 40
0.5015992000000002
 41
0.5015992000000002
  0
VERTEX
  5
178B
  8
TOPSOLDER
 10
1282.4492004000001089
 20
1269.6000008000000889
 30
0.0
 42
1.0
  0
VERTEX
  5
178C
  8
TOPSOLDER
 10
1282.9507995999999821
 20
1269.6000008000000889
 30
0.0
 42
1.0
  0
SEQEND
  5
178D
  8
TOPSOLDER
  0
POLYLINE
  5
21C
  8
TOPSOLDER
 66
     1
 10
0.0
 20
0.0
 30
0.0
 70
     1
 40
0.5015992000000002
 41
0.5015992000000002
  0
VERTEX
  5
178E
  8
TOPSOLDER
 10
1282.4492004000001089
 20
1270.3999991999999111
 30
0.0
 42
1.0
  0
VERTEX
  5
178F
  8
TOPSOLDER
 10
1282.9507995999999821
 20
1270.3999991999999111
 30
0.0
 42
1.0
  0
SEQEND
  5
1790
  8
TOPSOLDER
  0
POLYLINE
  5
21D
  8
TOPLAYER
 66
     1
 10
0.0
 20
0.0
 30
0.0
 40
0.8000009399999999
 41
0.8000009399999999
  0
VERTEX
  5
1791
  8
TOPLAYER
 10
1282.7000000000000455
 20
1269.6000008000000889
 30
0.0
  0
VERTEX
  5
1792
  8
TOPLAYER
 10
1282.7000000000000455
 20
1270.3999991999999111
 30
0.0
  0
SEQEND
  5
1793
  8
TOPLAYER
  0
POLYLINE
  5
21E
  8
TOPLAYER
 66
     1
 10
0.0
 20
0.0
 30
0.0
 70
     1
 40
0.3999992
 41
0.3999992
  0
VERTEX
  5
1794
  8
TOPLAYER
 10
1282.5000004000000899
 20
1269.6000008000000889
 30
0.0
 42
1.0
  0
VERTEX
  5
1795
  8
TOPLAYER
 10
1282.899999600000001
 20
1269.6000008000000889
 30
0.0
 42
1.0
  0
SEQEND
  5
1796
  8
TOPLAYER
  0
POLYLINE
  5
21F
  8
TOPLAYER
 66
     1
 10
0.0
 20
0.0
 30
0.0
 70
     1
 40
0.3999992
 41
0.3999992
  0
VERTEX
  5
1797
  8
TOPLAYER
 10
1282.5000004000000899
 20
1270.3999991999999111
 30
0.0
 42
1.0
  0
VERTEX
  5
1798
  8
TOPLAYER
 10
1282.899999600000001
 20
1270.3999991999999111
 30
0.0
 42
1.0
  0
SEQEND
  5
1799
  8
TOPLAYER
  0
POLYLINE
  5
220
  8
TOPPASTE
 66
     1
 10
0.0
 20
0.0
 30
0.0
 40
0.8000009399999999
 41
0.8000009399999999
  0
VERTEX
  5
179A
  8
TOPPASTE
 10
1281.4300000000000637
 20
1269.6000008000000889
 30
0.0
  0
VERTEX
  5
179B
  8
TOPPASTE
 10
1281.4300000000000637
 20
1270.3999991999999111
 30
0.0
  0
SEQEND
  5
179C
  8
TOPPASTE
  0
POLYLINE
  5
221
  8
TOPPASTE
 66
     1
 10
0.0
 20
0.0
 30
0.0
 70
     1
 40
0.3999992
 41
0.3999992
  0
VERTEX
  5
179D
  8
TOPPASTE
 10
1281.2300004000001081
 20
1269.6000008000000889
 30
0.0
 42
1.0
  0
VERTEX
  5
179E
  8
TOPPASTE
 10
1281.6299996000000192
 20
1269.6000008000000889
 30
0.0
 42
1.0
  0
SEQEND
  5
179F
  8
TOPPASTE
  0
POLYLINE
  5
222
  8
TOPPASTE
 66
     1
 10
0.0
 20
0.0
 30
0.0
 70
     1
 40
0.3999992
 41
0.3999992
  0
VERTEX
  5
17A0
  8
TOPPASTE
 10
1281.2300004000001081
 20
1270.3999991999999111
 30
0.0
 42
1.0
  0
VERTEX
  5
17A1
  8
TOPPASTE
 10
1281.6299996000000192
 20
1270.3999991999999111
 30
0.0
 42
1.0
  0
SEQEND
  5
17A2
  8
TOPPASTE
  0
POLYLINE
  5
223
  8
TOPSOLDER
 66
     1
 10
0.0
 20
0.0
 30
0.0
 40
1.003200939999999
 41
1.003200939999999
  0
VERTEX
  5
17A3
  8
TOPSOLDER
 10
1281.4300000000000637
 20
1269.6000008000000889
 30
0.0
  0
VERTEX
  5
17A4
  8
TOPSOLDER
 10
1281.4300000000000637
 20
1270.3999991999999111
 30
0.0
  0
SEQEND
  5
17A5
  8
TOPSOLDER
  0
POLYLINE
  5
224
  8
TOPSOLDER
 66
     1
 10
0.0
 20
0.0
 30
0.0
 70
     1
 40
0.5015992000000002
 41
0.5015992000000002
  0
VERTEX
  5
17A6
  8
TOPSOLDER
 10
1281.1792003999998997
 20
1269.6000008000000889
 30
0.0
 42
1.0
  0
VERTEX
  5
17A7
  8
TOPSOLDER
 10
1281.6807996000000003
 20
1269.6000008000000889
 30
0.0
 42
1.0
  0
SEQEND
  5
17A8
  8
TOPSOLDER
  0
POLYLINE
  5
225
  8
TOPSOLDER
 66
     1
 10
0.0
 20
0.0
 30
0.0
 70
     1
 40
0.5015992000000002
 41
0.5015992000000002
  0
VERTEX
  5
17A9
  8
TOPSOLDER
 10
1281.1792003999998997
 20
1270.3999991999999111
 30
0.0
 42
1.0
  0
VERTEX
  5
17AA
  8
TOPSOLDER
 10
1281.6807996000000003
 20
1270.3999991999999111
 30
0.0
 42
1.0
  0
SEQEND
  5
17AB
  8
TOPSOLDER
  0
POLYLINE
  5
226
  8
TOPLAYER
 66
     1
 10
0.0
 20
0.0
 30
0.0
 40
0.8000009399999999
 41
0.8000009399999999
  0
VERTEX
  5
17AC
  8
TOPLAYER
 10
1281.4300000000000637
 20
1269.6000008000000889
 30
0.0
  0
VERTEX
  5
17AD
  8
TOPLAYER
 10
1281.4300000000000637
 20
1270.3999991999999111
 30
0.0
  0
SEQEND
  5
17AE
  8
TOPLAYER
  0
POLYLINE
  5
227
  8
TOPLAYER
 66
     1
 10
0.0
 20
0.0
 30
0.0
 70
     1
 40
0.3999992
 41
0.3999992
  0
VERTEX
  5
17AF
  8
TOPLAYER
 10
1281.2300004000001081
 20
1269.6000008000000889
 30
0.0
 42
1.0
  0
VERTEX
  5
17B0
  8
TOPLAYER
 10
1281.6299996000000192
 20
1269.6000008000000889
 30
0.0
 42
1.0
  0
SEQEND
  5
17B1
  8
TOPLAYER
  0
POLYLINE
  5
228
  8
TOPLAYER
 66
     1
 10
0.0
 20
0.0
 30
0.0
 70
     1
 40
0.3999992
 41
0.3999992
  0
VERTEX
  5
17B2
  8
TOPLAYER
 10
1281.2300004000001081
 20
1270.3999991999999111
 30
0.0
 42
1.0
  0
VERTEX
  5
17B3
  8
TOPLAYER
 10
1281.6299996000000192
 20
1270.3999991999999111
 30
0.0
 42
1.0
  0
SEQEND
  5
17B4
  8
TOPLAYER
  0
POLYLINE
  5
229
  8
TOPPASTE
 66
     1
 10
0.0
 20
0.0
 30
0.0
 40
0.8000009399999999
 41
0.8000009399999999
  0
VERTEX
  5
17B5
  8
TOPPASTE
 10
1280.1600000000000819
 20
1269.6000008000000889
 30
0.0
  0
VERTEX
  5
17B6
  8
TOPPASTE
 10
1280.1600000000000819
 20
1270.3999991999999111
 30
0.0
  0
SEQEND
  5
17B7
  8
TOPPASTE
  0
POLYLINE
  5
22A
  8
TOPPASTE
 66
     1
 10
0.0
 20
0.0
 30
0.0
 70
     1
 40
0.3999992
 41
0.3999992
  0
VERTEX
  5
17B8
  8
TOPPASTE
 10
1279.9600003999998989
 20
1269.6000008000000889
 30
0.0
 42
1.0
  0
VERTEX
  5
17B9
  8
TOPPASTE
 10
1280.3599996000000374
 20
1269.6000008000000889
 30
0.0
 42
1.0
  0
SEQEND
  5
17BA
  8
TOPPASTE
  0
POLYLINE
  5
22B
  8
TOPPASTE
 66
     1
 10
0.0
 20
0.0
 30
0.0
 70
     1
 40
0.3999992
 41
0.3999992
  0
VERTEX
  5
17BB
  8
TOPPASTE
 10
1279.9600003999998989
 20
1270.3999991999999111
 30
0.0
 42
1.0
  0
VERTEX
  5
17BC
  8
TOPPASTE
 10
1280.3599996000000374
 20
1270.3999991999999111
 30
0.0
 42
1.0
  0
SEQEND
  5
17BD
  8
TOPPASTE
  0
POLYLINE
  5
22C
  8
TOPSOLDER
 66
     1
 10
0.0
 20
0.0
 30
0.0
 40
1.003200939999999
 41
1.003200939999999
  0
VERTEX
  5
17BE
  8
TOPSOLDER
 10
1280.1600000000000819
 20
1269.6000008000000889
 30
0.0
  0
VERTEX
  5
17BF
  8
TOPSOLDER
 10
1280.1600000000000819
 20
1270.3999991999999111
 30
0.0
  0
SEQEND
  5
17C0
  8
TOPSOLDER
  0
POLYLINE
  5
22D
  8
TOPSOLDER
 66
     1
 10
0.0
 20
0.0
 30
0.0
 70
     1
 40
0.5015992000000002
 41
0.5015992000000002
  0
VERTEX
  5
17C1
  8
TOPSOLDER
 10
1279.9092003999999179
 20
1269.6000008000000889
 30
0.0
 42
1.0
  0
VERTEX
  5
17C2
  8
TOPSOLDER
 10
1280.4107996000000185
 20
1269.6000008000000889
 30
0.0
 42
1.0
  0
SEQEND
  5
17C3
  8
TOPSOLDER
  0
POLYLINE
  5
22E
  8
TOPSOLDER
 66
     1
 10
0.0
 20
0.0
 30
0.0
 70
     1
 40
0.5015992000000002
 41
0.5015992000000002
  0
VERTEX
  5
17C4
  8
TOPSOLDER
 10
1279.9092003999999179
 20
1270.3999991999999111
 30
0.0
 42
1.0
  0
VERTEX
  5
17C5
  8
TOPSOLDER
 10
1280.4107996000000185
 20
1270.3999991999999111
 30
0.0
 42
1.0
  0
SEQEND
  5
17C6
  8
TOPSOLDER
  0
POLYLINE
  5
22F
  8
TOPLAYER
 66
     1
 10
0.0
 20
0.0
 30
0.0
 40
0.8000009399999999
 41
0.8000009399999999
  0
VERTEX
  5
17C7
  8
TOPLAYER
 10
1280.1600000000000819
 20
1269.6000008000000889
 30
0.0
  0
VERTEX
  5
17C8
  8
TOPLAYER
 10
1280.1600000000000819
 20
1270.3999991999999111
 30
0.0
  0
SEQEND
  5
17C9
  8
TOPLAYER
  0
POLYLINE
  5
230
  8
TOPLAYER
 66
     1
 10
0.0
 20
0.0
 30
0.0
 70
     1
 40
0.3999992
 41
0.3999992
  0
VERTEX
  5
17CA
  8
TOPLAYER
 10
1279.9600003999998989
 20
1269.6000008000000889
 30
0.0
 42
1.0
  0
VERTEX
  5
17CB
  8
TOPLAYER
 10
1280.3599996000000374
 20
1269.6000008000000889
 30
0.0
 42
1.0
  0
SEQEND
  5
17CC
  8
TOPLAYER
  0
POLYLINE
  5
231
  8
TOPLAYER
 66
     1
 10
0.0
 20
0.0
 30
0.0
 70
     1
 40
0.3999992
 41
0.3999992
  0
VERTEX
  5
17CD
  8
TOPLAYER
 10
1279.9600003999998989
 20
1270.3999991999999111
 30
0.0
 42
1.0
  0
VERTEX
  5
17CE
  8
TOPLAYER
 10
1280.3599996000000374
 20
1270.3999991999999111
 30
0.0
 42
1.0
  0
SEQEND
  5
17CF
  8
TOPLAYER
  0
POLYLINE
  5
232
  8
TOPPASTE
 66
     1
 10
0.0
 20
0.0
 30
0.0
 40
0.8000009399999999
 41
0.8000009399999999
  0
VERTEX
  5
17D0
  8
TOPPASTE
 10
1278.8900000000001
 20
1269.6000008000000889
 30
0.0
  0
VERTEX
  5
17D1
  8
TOPPASTE
 10
1278.8900000000001
 20
1270.3999991999999111
 30
0.0
  0
SEQEND
  5
17D2
  8
TOPPASTE
  0
POLYLINE
  5
233
  8
TOPPASTE
 66
     1
 10
0.0
 20
0.0
 30
0.0
 70
     1
 40
0.3999992
 41
0.3999992
  0
VERTEX
  5
17D3
  8
TOPPASTE
 10
1278.6900003999999171
 20
1269.6000008000000889
 30
0.0
 42
1.0
  0
VERTEX
  5
17D4
  8
TOPPASTE
 10
1279.0899996000000556
 20
1269.6000008000000889
 30
0.0
 42
1.0
  0
SEQEND
  5
17D5
  8
TOPPASTE
  0
POLYLINE
  5
234
  8
TOPPASTE
 66
     1
 10
0.0
 20
0.0
 30
0.0
 70
     1
 40
0.3999992
 41
0.3999992
  0
VERTEX
  5
17D6
  8
TOPPASTE
 10
1278.6900003999999171
 20
1270.3999991999999111
 30
0.0
 42
1.0
  0
VERTEX
  5
17D7
  8
TOPPASTE
 10
1279.0899996000000556
 20
1270.3999991999999111
 30
0.0
 42
1.0
  0
SEQEND
  5
17D8
  8
TOPPASTE
  0
POLYLINE
  5
235
  8
TOPSOLDER
 66
     1
 10
0.0
 20
0.0
 30
0.0
 40
1.003200939999999
 41
1.003200939999999
  0
VERTEX
  5
17D9
  8
TOPSOLDER
 10
1278.8900000000001
 20
1269.6000008000000889
 30
0.0
  0
VERTEX
  5
17DA
  8
TOPSOLDER
 10
1278.8900000000001
 20
1270.3999991999999111
 30
0.0
  0
SEQEND
  5
17DB
  8
TOPSOLDER
  0
POLYLINE
  5
236
  8
TOPSOLDER
 66
     1
 10
0.0
 20
0.0
 30
0.0
 70
     1
 40
0.5015992000000002
 41
0.5015992000000002
  0
VERTEX
  5
17DC
  8
TOPSOLDER
 10
1278.6392003999999361
 20
1269.6000008000000889
 30
0.0
 42
1.0
  0
VERTEX
  5
17DD
  8
TOPSOLDER
 10
1279.1407996000000367
 20
1269.6000008000000889
 30
0.0
 42
1.0
  0
SEQEND
  5
17DE
  8
TOPSOLDER
  0
POLYLINE
  5
237
  8
TOPSOLDER
 66
     1
 10
0.0
 20
0.0
 30
0.0
 70
     1
 40
0.5015992000000002
 41
0.5015992000000002
  0
VERTEX
  5
17DF
  8
TOPSOLDER
 10
1278.6392003999999361
 20
1270.3999991999999111
 30
0.0
 42
1.0
  0
VERTEX
  5
17E0
  8
TOPSOLDER
 10
1279.1407996000000367
 20
1270.3999991999999111
 30
0.0
 42
1.0
  0
SEQEND
  5
17E1
  8
TOPSOLDER
  0
POLYLINE
  5
238
  8
TOPLAYER
 66
     1
 10
0.0
 20
0.0
 30
0.0
 40
0.8000009399999999
 41
0.8000009399999999
  0
VERTEX
  5
17E2
  8
TOPLAYER
 10
1278.8900000000001
 20
1269.6000008000000889
 30
0.0
  0
VERTEX
  5
17E3
  8
TOPLAYER
 10
1278.8900000000001
 20
1270.3999991999999111
 30
0.0
  0
SEQEND
  5
17E4
  8
TOPLAYER
  0
POLYLINE
  5
239
  8
TOPLAYER
 66
     1
 10
0.0
 20
0.0
 30
0.0
 70
     1
 40
0.3999992
 41
0.3999992
  0
VERTEX
  5
17E5
  8
TOPLAYER
 10
1278.6900003999999171
 20
1269.6000008000000889
 30
0.0
 42
1.0
  0
VERTEX
  5
17E6
  8
TOPLAYER
 10
1279.0899996000000556
 20
1269.6000008000000889
 30
0.0
 42
1.0
  0
SEQEND
  5
17E7
  8
TOPLAYER
  0
POLYLINE
  5
23A
  8
TOPLAYER
 66
     1
 10
0.0
 20
0.0
 30
0.0
 70
     1
 40
0.3999992
 41
0.3999992
  0
VERTEX
  5
17E8
  8
TOPLAYER
 10
1278.6900003999999171
 20
1270.3999991999999111
 30
0.0
 42
1.0
  0
VERTEX
  5
17E9
  8
TOPLAYER
 10
1279.0899996000000556
 20
1270.3999991999999111
 30
0.0
 42
1.0
  0
SEQEND
  5
17EA
  8
TOPLAYER
  0
POLYLINE
  5
23B
  8
TOPPASTE
 66
     1
 10
0.0
 20
0.0
 30
0.0
 40
0.8000009399999999
 41
0.8000009399999999
  0
VERTEX
  5
17EB
  8
TOPPASTE
 10
1277.6199999999998909
 20
1269.6000008000000889
 30
0.0
  0
VERTEX
  5
17EC
  8
TOPPASTE
 10
1277.6199999999998909
 20
1270.3999991999999111
 30
0.0
  0
SEQEND
  5
17ED
  8
TOPPASTE
  0
POLYLINE
  5
23C
  8
TOPPASTE
 66
     1
 10
0.0
 20
0.0
 30
0.0
 70
     1
 40
0.3999992
 41
0.3999992
  0
VERTEX
  5
17EE
  8
TOPPASTE
 10
1277.4200003999999353
 20
1269.6000008000000889
 30
0.0
 42
1.0
  0
VERTEX
  5
17EF
  8
TOPPASTE
 10
1277.8199996000000738
 20
1269.6000008000000889
 30
0.0
 42
1.0
  0
SEQEND
  5
17F0
  8
TOPPASTE
  0
POLYLINE
  5
23D
  8
TOPPASTE
 66
     1
 10
0.0
 20
0.0
 30
0.0
 70
     1
 40
0.3999992
 41
0.3999992
  0
VERTEX
  5
17F1
  8
TOPPASTE
 10
1277.4200003999999353
 20
1270.3999991999999111
 30
0.0
 42
1.0
  0
VERTEX
  5
17F2
  8
TOPPASTE
 10
1277.8199996000000738
 20
1270.3999991999999111
 30
0.0
 42
1.0
  0
SEQEND
  5
17F3
  8
TOPPASTE
  0
POLYLINE
  5
23E
  8
TOPSOLDER
 66
     1
 10
0.0
 20
0.0
 30
0.0
 40
1.003200939999999
 41
1.003200939999999
  0
VERTEX
  5
17F4
  8
TOPSOLDER
 10
1277.6199999999998909
 20
1269.6000008000000889
 30
0.0
  0
VERTEX
  5
17F5
  8
TOPSOLDER
 10
1277.6199999999998909
 20
1270.3999991999999111
 30
0.0
  0
SEQEND
  5
17F6
  8
TOPSOLDER
  0
POLYLINE
  5
23F
  8
TOPSOLDER
 66
     1
 10
0.0
 20
0.0
 30
0.0
 70
     1
 40
0.5015992000000002
 41
0.5015992000000002
  0
VERTEX
  5
17F7
  8
TOPSOLDER
 10
1277.3692003999999542
 20
1269.6000008000000889
 30
0.0
 42
1.0
  0
VERTEX
  5
17F8
  8
TOPSOLDER
 10
1277.8707996000000549
 20
1269.6000008000000889
 30
0.0
 42
1.0
  0
SEQEND
  5
17F9
  8
TOPSOLDER
  0
POLYLINE
  5
240
  8
TOPSOLDER
 66
     1
 10
0.0
 20
0.0
 30
0.0
 70
     1
 40
0.5015992000000002
 41
0.5015992000000002
  0
VERTEX
  5
17FA
  8
TOPSOLDER
 10
1277.3692003999999542
 20
1270.3999991999999111
 30
0.0
 42
1.0
  0
VERTEX
  5
17FB
  8
TOPSOLDER
 10
1277.8707996000000549
 20
1270.3999991999999111
 30
0.0
 42
1.0
  0
SEQEND
  5
17FC
  8
TOPSOLDER
  0
POLYLINE
  5
241
  8
TOPLAYER
 66
     1
 10
0.0
 20
0.0
 30
0.0
 40
0.8000009399999999
 41
0.8000009399999999
  0
VERTEX
  5
17FD
  8
TOPLAYER
 10
1277.6199999999998909
 20
1269.6000008000000889
 30
0.0
  0
VERTEX
  5
17FE
  8
TOPLAYER
 10
1277.6199999999998909
 20
1270.3999991999999111
 30
0.0
  0
SEQEND
  5
17FF
  8
TOPLAYER
  0
POLYLINE
  5
242
  8
TOPLAYER
 66
     1
 10
0.0
 20
0.0
 30
0.0
 70
     1
 40
0.3999992
 41
0.3999992
  0
VERTEX
  5
1800
  8
TOPLAYER
 10
1277.4200003999999353
 20
1269.6000008000000889
 30
0.0
 42
1.0
  0
VERTEX
  5
1801
  8
TOPLAYER
 10
1277.8199996000000738
 20
1269.6000008000000889
 30
0.0
 42
1.0
  0
SEQEND
  5
1802
  8
TOPLAYER
  0
POLYLINE
  5
243
  8
TOPLAYER
 66
     1
 10
0.0
 20
0.0
 30
0.0
 70
     1
 40
0.3999992
 41
0.3999992
  0
VERTEX
  5
1803
  8
TOPLAYER
 10
1277.4200003999999353
 20
1270.3999991999999111
 30
0.0
 42
1.0
  0
VERTEX
  5
1804
  8
TOPLAYER
 10
1277.8199996000000738
 20
1270.3999991999999111
 30
0.0
 42
1.0
  0
SEQEND
  5
1805
  8
TOPLAYER
  0
POLYLINE
  5
246
  8
TOPPASTE
 66
     1
 10
0.0
 20
0.0
 30
0.0
 40
0.8000009399999999
 41
0.8000009399999999
  0
VERTEX
  5
1806
  8
TOPPASTE
 10
1270.3999991999999111
 20
1270.6349999999999909
 30
0.0
  0
VERTEX
  5
1807
  8
TOPPASTE
 10
1269.6000008000000889
 20
1270.6349999999999909
 30
0.0
  0
SEQEND
  5
1808
  8
TOPPASTE
  0
POLYLINE
  5
247
  8
TOPPASTE
 66
     1
 10
0.0
 20
0.0
 30
0.0
 70
     1
 40
0.3999992
 41
0.3999992
  0
VERTEX
  5
1809
  8
TOPPASTE
 10
1270.1999995999999555
 20
1270.6349999999999909
 30
0.0
 42
1.0
  0
VERTEX
  5
180A
  8
TOPPASTE
 10
1270.599998800000094
 20
1270.6349999999999909
 30
0.0
 42
1.0
  0
SEQEND
  5
180B
  8
TOPPASTE
  0
POLYLINE
  5
248
  8
TOPPASTE
 66
     1
 10
0.0
 20
0.0
 30
0.0
 70
     1
 40
0.3999992
 41
0.3999992
  0
VERTEX
  5
180C
  8
TOPPASTE
 10
1269.400001199999906
 20
1270.6349999999999909
 30
0.0
 42
1.0
  0
VERTEX
  5
180D
  8
TOPPASTE
 10
1269.8000004000000445
 20
1270.6349999999999909
 30
0.0
 42
1.0
  0
SEQEND
  5
180E
  8
TOPPASTE
  0
POLYLINE
  5
249
  8
TOPSOLDER
 66
     1
 10
0.0
 20
0.0
 30
0.0
 40
1.003200939999999
 41
1.003200939999999
  0
VERTEX
  5
180F
  8
TOPSOLDER
 10
1270.3999991999999111
 20
1270.6349999999999909
 30
0.0
  0
VERTEX
  5
1810
  8
TOPSOLDER
 10
1269.6000008000000889
 20
1270.6349999999999909
 30
0.0
  0
SEQEND
  5
1811
  8
TOPSOLDER
  0
POLYLINE
  5
24A
  8
TOPSOLDER
 66
     1
 10
0.0
 20
0.0
 30
0.0
 70
     1
 40
0.5015992000000002
 41
0.5015992000000002
  0
VERTEX
  5
1812
  8
TOPSOLDER
 10
1270.1491995999999745
 20
1270.6349999999999909
 30
0.0
 42
1.0
  0
VERTEX
  5
1813
  8
TOPSOLDER
 10
1270.6507988000000751
 20
1270.6349999999999909
 30
0.0
 42
1.0
  0
SEQEND
  5
1814
  8
TOPSOLDER
  0
POLYLINE
  5
24B
  8
TOPSOLDER
 66
     1
 10
0.0
 20
0.0
 30
0.0
 70
     1
 40
0.5015992000000002
 41
0.5015992000000002
  0
VERTEX
  5
1815
  8
TOPSOLDER
 10
1269.3492011999999249
 20
1270.6349999999999909
 30
0.0
 42
1.0
  0
VERTEX
  5
1816
  8
TOPSOLDER
 10
1269.8508004000000255
 20
1270.6349999999999909
 30
0.0
 42
1.0
  0
SEQEND
  5
1817
  8
TOPSOLDER
  0
POLYLINE
  5
24C
  8
TOPLAYER
 66
     1
 10
0.0
 20
0.0
 30
0.0
 40
0.8000009399999999
 41
0.8000009399999999
  0
VERTEX
  5
1818
  8
TOPLAYER
 10
1270.3999991999999111
 20
1270.6349999999999909
 30
0.0
  0
VERTEX
  5
1819
  8
TOPLAYER
 10
1269.6000008000000889
 20
1270.6349999999999909
 30
0.0
  0
SEQEND
  5
181A
  8
TOPLAYER
  0
POLYLINE
  5
24D
  8
TOPLAYER
 66
     1
 10
0.0
 20
0.0
 30
0.0
 70
     1
 40
0.3999992
 41
0.3999992
  0
VERTEX
  5
181B
  8
TOPLAYER
 10
1270.1999995999999555
 20
1270.6349999999999909
 30
0.0
 42
1.0
  0
VERTEX
  5
181C
  8
TOPLAYER
 10
1270.599998800000094
 20
1270.6349999999999909
 30
0.0
 42
1.0
  0
SEQEND
  5
181D
  8
TOPLAYER
  0
POLYLINE
  5
24E
  8
TOPLAYER
 66
     1
 10
0.0
 20
0.0
 30
0.0
 70
     1
 40
0.3999992
 41
0.3999992
  0
VERTEX
  5
181E
  8
TOPLAYER
 10
1269.400001199999906
 20
1270.6349999999999909
 30
0.0
 42
1.0
  0
VERTEX
  5
181F
  8
TOPLAYER
 10
1269.8000004000000445
 20
1270.6349999999999909
 30
0.0
 42
1.0
  0
SEQEND
  5
1820
  8
TOPLAYER
  0
POLYLINE
  5
24F
  8
TOPPASTE
 66
     1
 10
0.0
 20
0.0
 30
0.0
 40
0.8000009399999999
 41
0.8000009399999999
  0
VERTEX
  5
1821
  8
TOPPASTE
 10
1270.3999991999999111
 20
1273.1749999999999545
 30
0.0
  0
VERTEX
  5
1822
  8
TOPPASTE
 10
1269.6000008000000889
 20
1273.1749999999999545
 30
0.0
  0
SEQEND
  5
1823
  8
TOPPASTE
  0
POLYLINE
  5
250
  8
TOPPASTE
 66
     1
 10
0.0
 20
0.0
 30
0.0
 70
     1
 40
0.3999992
 41
0.3999992
  0
VERTEX
  5
1824
  8
TOPPASTE
 10
1270.1999995999999555
 20
1273.1749999999999545
 30
0.0
 42
1.0
  0
VERTEX
  5
1825
  8
TOPPASTE
 10
1270.599998800000094
 20
1273.1749999999999545
 30
0.0
 42
1.0
  0
SEQEND
  5
1826
  8
TOPPASTE
  0
POLYLINE
  5
251
  8
TOPPASTE
 66
     1
 10
0.0
 20
0.0
 30
0.0
 70
     1
 40
0.3999992
 41
0.3999992
  0
VERTEX
  5
1827
  8
TOPPASTE
 10
1269.400001199999906
 20
1273.1749999999999545
 30
0.0
 42
1.0
  0
VERTEX
  5
1828
  8
TOPPASTE
 10
1269.8000004000000445
 20
1273.1749999999999545
 30
0.0
 42
1.0
  0
SEQEND
  5
1829
  8
TOPPASTE
  0
POLYLINE
  5
252
  8
TOPSOLDER
 66
     1
 10
0.0
 20
0.0
 30
0.0
 40
1.003200939999999
 41
1.003200939999999
  0
VERTEX
  5
182A
  8
TOPSOLDER
 10
1270.3999991999999111
 20
1273.1749999999999545
 30
0.0
  0
VERTEX
  5
182B
  8
TOPSOLDER
 10
1269.6000008000000889
 20
1273.1749999999999545
 30
0.0
  0
SEQEND
  5
182C
  8
TOPSOLDER
  0
POLYLINE
  5
253
  8
TOPSOLDER
 66
     1
 10
0.0
 20
0.0
 30
0.0
 70
     1
 40
0.5015992000000002
 41
0.5015992000000002
  0
VERTEX
  5
182D
  8
TOPSOLDER
 10
1270.1491995999999745
 20
1273.1749999999999545
 30
0.0
 42
1.0
  0
VERTEX
  5
182E
  8
TOPSOLDER
 10
1270.6507988000000751
 20
1273.1749999999999545
 30
0.0
 42
1.0
  0
SEQEND
  5
182F
  8
TOPSOLDER
  0
POLYLINE
  5
254
  8
TOPSOLDER
 66
     1
 10
0.0
 20
0.0
 30
0.0
 70
     1
 40
0.5015992000000002
 41
0.5015992000000002
  0
VERTEX
  5
1830
  8
TOPSOLDER
 10
1269.3492011999999249
 20
1273.1749999999999545
 30
0.0
 42
1.0
  0
VERTEX
  5
1831
  8
TOPSOLDER
 10
1269.8508004000000255
 20
1273.1749999999999545
 30
0.0
 42
1.0
  0
SEQEND
  5
1832
  8
TOPSOLDER
  0
POLYLINE
  5
255
  8
TOPLAYER
 66
     1
 10
0.0
 20
0.0
 30
0.0
 40
0.8000009399999999
 41
0.8000009399999999
  0
VERTEX
  5
1833
  8
TOPLAYER
 10
1270.3999991999999111
 20
1273.1749999999999545
 30
0.0
  0
VERTEX
  5
1834
  8
TOPLAYER
 10
1269.6000008000000889
 20
1273.1749999999999545
 30
0.0
  0
SEQEND
  5
1835
  8
TOPLAYER
  0
POLYLINE
  5
256
  8
TOPLAYER
 66
     1
 10
0.0
 20
0.0
 30
0.0
 70
     1
 40
0.3999992
 41
0.3999992
  0
VERTEX
  5
1836
  8
TOPLAYER
 10
1270.1999995999999555
 20
1273.1749999999999545
 30
0.0
 42
1.0
  0
VERTEX
  5
1837
  8
TOPLAYER
 10
1270.599998800000094
 20
1273.1749999999999545
 30
0.0
 42
1.0
  0
SEQEND
  5
1838
  8
TOPLAYER
  0
POLYLINE
  5
257
  8
TOPLAYER
 66
     1
 10
0.0
 20
0.0
 30
0.0
 70
     1
 40
0.3999992
 41
0.3999992
  0
VERTEX
  5
1839
  8
TOPLAYER
 10
1269.400001199999906
 20
1273.1749999999999545
 30
0.0
 42
1.0
  0
VERTEX
  5
183A
  8
TOPLAYER
 10
1269.8000004000000445
 20
1273.1749999999999545
 30
0.0
 42
1.0
  0
SEQEND
  5
183B
  8
TOPLAYER
  0
POLYLINE
  5
258
  8
TOPPASTE
 66
     1
 10
0.0
 20
0.0
 30
0.0
 40
0.8000009399999999
 41
0.8000009399999999
  0
VERTEX
  5
183C
  8
TOPPASTE
 10
1270.3999991999999111
 20
1275.7149999999999181
 30
0.0
  0
VERTEX
  5
183D
  8
TOPPASTE
 10
1269.6000008000000889
 20
1275.7149999999999181
 30
0.0
  0
SEQEND
  5
183E
  8
TOPPASTE
  0
POLYLINE
  5
259
  8
TOPPASTE
 66
     1
 10
0.0
 20
0.0
 30
0.0
 70
     1
 40
0.3999992
 41
0.3999992
  0
VERTEX
  5
183F
  8
TOPPASTE
 10
1270.1999995999999555
 20
1275.7149999999999181
 30
0.0
 42
1.0
  0
VERTEX
  5
1840
  8
TOPPASTE
 10
1270.599998800000094
 20
1275.7149999999999181
 30
0.0
 42
1.0
  0
SEQEND
  5
1841
  8
TOPPASTE
  0
POLYLINE
  5
25A
  8
TOPPASTE
 66
     1
 10
0.0
 20
0.0
 30
0.0
 70
     1
 40
0.3999992
 41
0.3999992
  0
VERTEX
  5
1842
  8
TOPPASTE
 10
1269.400001199999906
 20
1275.7149999999999181
 30
0.0
 42
1.0
  0
VERTEX
  5
1843
  8
TOPPASTE
 10
1269.8000004000000445
 20
1275.7149999999999181
 30
0.0
 42
1.0
  0
SEQEND
  5
1844
  8
TOPPASTE
  0
POLYLINE
  5
25B
  8
TOPSOLDER
 66
     1
 10
0.0
 20
0.0
 30
0.0
 40
1.003200939999999
 41
1.003200939999999
  0
VERTEX
  5
1845
  8
TOPSOLDER
 10
1270.3999991999999111
 20
1275.7149999999999181
 30
0.0
  0
VERTEX
  5
1846
  8
TOPSOLDER
 10
1269.6000008000000889
 20
1275.7149999999999181
 30
0.0
  0
SEQEND
  5
1847
  8
TOPSOLDER
  0
POLYLINE
  5
25C
  8
TOPSOLDER
 66
     1
 10
0.0
 20
0.0
 30
0.0
 70
     1
 40
0.5015992000000002
 41
0.5015992000000002
  0
VERTEX
  5
1848
  8
TOPSOLDER
 10
1270.1491995999999745
 20
1275.7149999999999181
 30
0.0
 42
1.0
  0
VERTEX
  5
1849
  8
TOPSOLDER
 10
1270.6507988000000751
 20
1275.7149999999999181
 30
0.0
 42
1.0
  0
SEQEND
  5
184A
  8
TOPSOLDER
  0
POLYLINE
  5
25D
  8
TOPSOLDER
 66
     1
 10
0.0
 20
0.0
 30
0.0
 70
     1
 40
0.5015992000000002
 41
0.5015992000000002
  0
VERTEX
  5
184B
  8
TOPSOLDER
 10
1269.3492011999999249
 20
1275.7149999999999181
 30
0.0
 42
1.0
  0
VERTEX
  5
184C
  8
TOPSOLDER
 10
1269.8508004000000255
 20
1275.7149999999999181
 30
0.0
 42
1.0
  0
SEQEND
  5
184D
  8
TOPSOLDER
  0
POLYLINE
  5
25E
  8
TOPLAYER
 66
     1
 10
0.0
 20
0.0
 30
0.0
 40
0.8000009399999999
 41
0.8000009399999999
  0
VERTEX
  5
184E
  8
TOPLAYER
 10
1270.3999991999999111
 20
1275.7149999999999181
 30
0.0
  0
VERTEX
  5
184F
  8
TOPLAYER
 10
1269.6000008000000889
 20
1275.7149999999999181
 30
0.0
  0
SEQEND
  5
1850
  8
TOPLAYER
  0
POLYLINE
  5
25F
  8
TOPLAYER
 66
     1
 10
0.0
 20
0.0
 30
0.0
 70
     1
 40
0.3999992
 41
0.3999992
  0
VERTEX
  5
1851
  8
TOPLAYER
 10
1270.1999995999999555
 20
1275.7149999999999181
 30
0.0
 42
1.0
  0
VERTEX
  5
1852
  8
TOPLAYER
 10
1270.599998800000094
 20
1275.7149999999999181
 30
0.0
 42
1.0
  0
SEQEND
  5
1853
  8
TOPLAYER
  0
POLYLINE
  5
260
  8
TOPLAYER
 66
     1
 10
0.0
 20
0.0
 30
0.0
 70
     1
 40
0.3999992
 41
0.3999992
  0
VERTEX
  5
1854
  8
TOPLAYER
 10
1269.400001199999906
 20
1275.7149999999999181
 30
0.0
 42
1.0
  0
VERTEX
  5
1855
  8
TOPLAYER
 10
1269.8000004000000445
 20
1275.7149999999999181
 30
0.0
 42
1.0
  0
SEQEND
  5
1856
  8
TOPLAYER
  0
POLYLINE
  5
261
  8
TOPPASTE
 66
     1
 10
0.0
 20
0.0
 30
0.0
 40
0.8000009399999999
 41
0.8000009399999999
  0
VERTEX
  5
1857
  8
TOPPASTE
 10
1270.3999991999999111
 20
1274.4449999999999363
 30
0.0
  0
VERTEX
  5
1858
  8
TOPPASTE
 10
1269.6000008000000889
 20
1274.4449999999999363
 30
0.0
  0
SEQEND
  5
1859
  8
TOPPASTE
  0
POLYLINE
  5
262
  8
TOPPASTE
 66
     1
 10
0.0
 20
0.0
 30
0.0
 70
     1
 40
0.3999992
 41
0.3999992
  0
VERTEX
  5
185A
  8
TOPPASTE
 10
1270.1999995999999555
 20
1274.4449999999999363
 30
0.0
 42
1.0
  0
VERTEX
  5
185B
  8
TOPPASTE
 10
1270.599998800000094
 20
1274.4449999999999363
 30
0.0
 42
1.0
  0
SEQEND
  5
185C
  8
TOPPASTE
  0
POLYLINE
  5
263
  8
TOPPASTE
 66
     1
 10
0.0
 20
0.0
 30
0.0
 70
     1
 40
0.3999992
 41
0.3999992
  0
VERTEX
  5
185D
  8
TOPPASTE
 10
1269.400001199999906
 20
1274.4449999999999363
 30
0.0
 42
1.0
  0
VERTEX
  5
185E
  8
TOPPASTE
 10
1269.8000004000000445
 20
1274.4449999999999363
 30
0.0
 42
1.0
  0
SEQEND
  5
185F
  8
TOPPASTE
  0
POLYLINE
  5
264
  8
TOPSOLDER
 66
     1
 10
0.0
 20
0.0
 30
0.0
 40
1.003200939999999
 41
1.003200939999999
  0
VERTEX
  5
1860
  8
TOPSOLDER
 10
1270.3999991999999111
 20
1274.4449999999999363
 30
0.0
  0
VERTEX
  5
1861
  8
TOPSOLDER
 10
1269.6000008000000889
 20
1274.4449999999999363
 30
0.0
  0
SEQEND
  5
1862
  8
TOPSOLDER
  0
POLYLINE
  5
265
  8
TOPSOLDER
 66
     1
 10
0.0
 20
0.0
 30
0.0
 70
     1
 40
0.5015992000000002
 41
0.5015992000000002
  0
VERTEX
  5
1863
  8
TOPSOLDER
 10
1270.1491995999999745
 20
1274.4449999999999363
 30
0.0
 42
1.0
  0
VERTEX
  5
1864
  8
TOPSOLDER
 10
1270.6507988000000751
 20
1274.4449999999999363
 30
0.0
 42
1.0
  0
SEQEND
  5
1865
  8
TOPSOLDER
  0
POLYLINE
  5
266
  8
TOPSOLDER
 66
     1
 10
0.0
 20
0.0
 30
0.0
 70
     1
 40
0.5015992000000002
 41
0.5015992000000002
  0
VERTEX
  5
1866
  8
TOPSOLDER
 10
1269.3492011999999249
 20
1274.4449999999999363
 30
0.0
 42
1.0
  0
VERTEX
  5
1867
  8
TOPSOLDER
 10
1269.8508004000000255
 20
1274.4449999999999363
 30
0.0
 42
1.0
  0
SEQEND
  5
1868
  8
TOPSOLDER
  0
POLYLINE
  5
267
  8
TOPLAYER
 66
     1
 10
0.0
 20
0.0
 30
0.0
 40
0.8000009399999999
 41
0.8000009399999999
  0
VERTEX
  5
1869
  8
TOPLAYER
 10
1270.3999991999999111
 20
1274.4449999999999363
 30
0.0
  0
VERTEX
  5
186A
  8
TOPLAYER
 10
1269.6000008000000889
 20
1274.4449999999999363
 30
0.0
  0
SEQEND
  5
186B
  8
TOPLAYER
  0
POLYLINE
  5
268
  8
TOPLAYER
 66
     1
 10
0.0
 20
0.0
 30
0.0
 70
     1
 40
0.3999992
 41
0.3999992
  0
VERTEX
  5
186C
  8
TOPLAYER
 10
1270.1999995999999555
 20
1274.4449999999999363
 30
0.0
 42
1.0
  0
VERTEX
  5
186D
  8
TOPLAYER
 10
1270.599998800000094
 20
1274.4449999999999363
 30
0.0
 42
1.0
  0
SEQEND
  5
186E
  8
TOPLAYER
  0
POLYLINE
  5
269
  8
TOPLAYER
 66
     1
 10
0.0
 20
0.0
 30
0.0
 70
     1
 40
0.3999992
 41
0.3999992
  0
VERTEX
  5
186F
  8
TOPLAYER
 10
1269.400001199999906
 20
1274.4449999999999363
 30
0.0
 42
1.0
  0
VERTEX
  5
1870
  8
TOPLAYER
 10
1269.8000004000000445
 20
1274.4449999999999363
 30
0.0
 42
1.0
  0
SEQEND
  5
1871
  8
TOPLAYER
  0
POLYLINE
  5
26A
  8
TOPPASTE
 66
     1
 10
0.0
 20
0.0
 30
0.0
 40
0.8000009399999999
 41
0.8000009399999999
  0
VERTEX
  5
1872
  8
TOPPASTE
 10
1270.3999991999999111
 20
1279.5250000000000909
 30
0.0
  0
VERTEX
  5
1873
  8
TOPPASTE
 10
1269.6000008000000889
 20
1279.5250000000000909
 30
0.0
  0
SEQEND
  5
1874
  8
TOPPASTE
  0
POLYLINE
  5
26B
  8
TOPPASTE
 66
     1
 10
0.0
 20
0.0
 30
0.0
 70
     1
 40
0.3999992
 41
0.3999992
  0
VERTEX
  5
1875
  8
TOPPASTE
 10
1270.1999995999999555
 20
1279.5250000000000909
 30
0.0
 42
1.0
  0
VERTEX
  5
1876
  8
TOPPASTE
 10
1270.599998800000094
 20
1279.5250000000000909
 30
0.0
 42
1.0
  0
SEQEND
  5
1877
  8
TOPPASTE
  0
POLYLINE
  5
26C
  8
TOPPASTE
 66
     1
 10
0.0
 20
0.0
 30
0.0
 70
     1
 40
0.3999992
 41
0.3999992
  0
VERTEX
  5
1878
  8
TOPPASTE
 10
1269.400001199999906
 20
1279.5250000000000909
 30
0.0
 42
1.0
  0
VERTEX
  5
1879
  8
TOPPASTE
 10
1269.8000004000000445
 20
1279.5250000000000909
 30
0.0
 42
1.0
  0
SEQEND
  5
187A
  8
TOPPASTE
  0
POLYLINE
  5
26D
  8
TOPSOLDER
 66
     1
 10
0.0
 20
0.0
 30
0.0
 40
1.003200939999999
 41
1.003200939999999
  0
VERTEX
  5
187B
  8
TOPSOLDER
 10
1270.3999991999999111
 20
1279.5250000000000909
 30
0.0
  0
VERTEX
  5
187C
  8
TOPSOLDER
 10
1269.6000008000000889
 20
1279.5250000000000909
 30
0.0
  0
SEQEND
  5
187D
  8
TOPSOLDER
  0
POLYLINE
  5
26E
  8
TOPSOLDER
 66
     1
 10
0.0
 20
0.0
 30
0.0
 70
     1
 40
0.5015992000000002
 41
0.5015992000000002
  0
VERTEX
  5
187E
  8
TOPSOLDER
 10
1270.1491995999999745
 20
1279.5250000000000909
 30
0.0
 42
1.0
  0
VERTEX
  5
187F
  8
TOPSOLDER
 10
1270.6507988000000751
 20
1279.5250000000000909
 30
0.0
 42
1.0
  0
SEQEND
  5
1880
  8
TOPSOLDER
  0
POLYLINE
  5
26F
  8
TOPSOLDER
 66
     1
 10
0.0
 20
0.0
 30
0.0
 70
     1
 40
0.5015992000000002
 41
0.5015992000000002
  0
VERTEX
  5
1881
  8
TOPSOLDER
 10
1269.3492011999999249
 20
1279.5250000000000909
 30
0.0
 42
1.0
  0
VERTEX
  5
1882
  8
TOPSOLDER
 10
1269.8508004000000255
 20
1279.5250000000000909
 30
0.0
 42
1.0
  0
SEQEND
  5
1883
  8
TOPSOLDER
  0
POLYLINE
  5
270
  8
TOPLAYER
 66
     1
 10
0.0
 20
0.0
 30
0.0
 40
0.8000009399999999
 41
0.8000009399999999
  0
VERTEX
  5
1884
  8
TOPLAYER
 10
1270.3999991999999111
 20
1279.5250000000000909
 30
0.0
  0
VERTEX
  5
1885
  8
TOPLAYER
 10
1269.6000008000000889
 20
1279.5250000000000909
 30
0.0
  0
SEQEND
  5
1886
  8
TOPLAYER
  0
POLYLINE
  5
271
  8
TOPLAYER
 66
     1
 10
0.0
 20
0.0
 30
0.0
 70
     1
 40
0.3999992
 41
0.3999992
  0
VERTEX
  5
1887
  8
TOPLAYER
 10
1270.1999995999999555
 20
1279.5250000000000909
 30
0.0
 42
1.0
  0
VERTEX
  5
1888
  8
TOPLAYER
 10
1270.599998800000094
 20
1279.5250000000000909
 30
0.0
 42
1.0
  0
SEQEND
  5
1889
  8
TOPLAYER
  0
POLYLINE
  5
272
  8
TOPLAYER
 66
     1
 10
0.0
 20
0.0
 30
0.0
 70
     1
 40
0.3999992
 41
0.3999992
  0
VERTEX
  5
188A
  8
TOPLAYER
 10
1269.400001199999906
 20
1279.5250000000000909
 30
0.0
 42
1.0
  0
VERTEX
  5
188B
  8
TOPLAYER
 10
1269.8000004000000445
 20
1279.5250000000000909
 30
0.0
 42
1.0
  0
SEQEND
  5
188C
  8
TOPLAYER
  0
POLYLINE
  5
273
  8
TOPPASTE
 66
     1
 10
0.0
 20
0.0
 30
0.0
 40
0.8000009399999999
 41
0.8000009399999999
  0
VERTEX
  5
188D
  8
TOPPASTE
 10
1270.3999991999999111
 20
1280.7950000000000728
 30
0.0
  0
VERTEX
  5
188E
  8
TOPPASTE
 10
1269.6000008000000889
 20
1280.7950000000000728
 30
0.0
  0
SEQEND
  5
188F
  8
TOPPASTE
  0
POLYLINE
  5
274
  8
TOPPASTE
 66
     1
 10
0.0
 20
0.0
 30
0.0
 70
     1
 40
0.3999992
 41
0.3999992
  0
VERTEX
  5
1890
  8
TOPPASTE
 10
1270.1999995999999555
 20
1280.7950000000000728
 30
0.0
 42
1.0
  0
VERTEX
  5
1891
  8
TOPPASTE
 10
1270.599998800000094
 20
1280.7950000000000728
 30
0.0
 42
1.0
  0
SEQEND
  5
1892
  8
TOPPASTE
  0
POLYLINE
  5
275
  8
TOPPASTE
 66
     1
 10
0.0
 20
0.0
 30
0.0
 70
     1
 40
0.3999992
 41
0.3999992
  0
VERTEX
  5
1893
  8
TOPPASTE
 10
1269.400001199999906
 20
1280.7950000000000728
 30
0.0
 42
1.0
  0
VERTEX
  5
1894
  8
TOPPASTE
 10
1269.8000004000000445
 20
1280.7950000000000728
 30
0.0
 42
1.0
  0
SEQEND
  5
1895
  8
TOPPASTE
  0
POLYLINE
  5
276
  8
TOPSOLDER
 66
     1
 10
0.0
 20
0.0
 30
0.0
 40
1.003200939999999
 41
1.003200939999999
  0
VERTEX
  5
1896
  8
TOPSOLDER
 10
1270.3999991999999111
 20
1280.7950000000000728
 30
0.0
  0
VERTEX
  5
1897
  8
TOPSOLDER
 10
1269.6000008000000889
 20
1280.7950000000000728
 30
0.0
  0
SEQEND
  5
1898
  8
TOPSOLDER
  0
POLYLINE
  5
277
  8
TOPSOLDER
 66
     1
 10
0.0
 20
0.0
 30
0.0
 70
     1
 40
0.5015992000000002
 41
0.5015992000000002
  0
VERTEX
  5
1899
  8
TOPSOLDER
 10
1270.1491995999999745
 20
1280.7950000000000728
 30
0.0
 42
1.0
  0
VERTEX
  5
189A
  8
TOPSOLDER
 10
1270.6507988000000751
 20
1280.7950000000000728
 30
0.0
 42
1.0
  0
SEQEND
  5
189B
  8
TOPSOLDER
  0
POLYLINE
  5
278
  8
TOPSOLDER
 66
     1
 10
0.0
 20
0.0
 30
0.0
 70
     1
 40
0.5015992000000002
 41
0.5015992000000002
  0
VERTEX
  5
189C
  8
TOPSOLDER
 10
1269.3492011999999249
 20
1280.7950000000000728
 30
0.0
 42
1.0
  0
VERTEX
  5
189D
  8
TOPSOLDER
 10
1269.8508004000000255
 20
1280.7950000000000728
 30
0.0
 42
1.0
  0
SEQEND
  5
189E
  8
TOPSOLDER
  0
POLYLINE
  5
279
  8
TOPLAYER
 66
     1
 10
0.0
 20
0.0
 30
0.0
 40
0.8000009399999999
 41
0.8000009399999999
  0
VERTEX
  5
189F
  8
TOPLAYER
 10
1270.3999991999999111
 20
1280.7950000000000728
 30
0.0
  0
VERTEX
  5
18A0
  8
TOPLAYER
 10
1269.6000008000000889
 20
1280.7950000000000728
 30
0.0
  0
SEQEND
  5
18A1
  8
TOPLAYER
  0
POLYLINE
  5
27A
  8
TOPLAYER
 66
     1
 10
0.0
 20
0.0
 30
0.0
 70
     1
 40
0.3999992
 41
0.3999992
  0
VERTEX
  5
18A2
  8
TOPLAYER
 10
1270.1999995999999555
 20
1280.7950000000000728
 30
0.0
 42
1.0
  0
VERTEX
  5
18A3
  8
TOPLAYER
 10
1270.599998800000094
 20
1280.7950000000000728
 30
0.0
 42
1.0
  0
SEQEND
  5
18A4
  8
TOPLAYER
  0
POLYLINE
  5
27B
  8
TOPLAYER
 66
     1
 10
0.0
 20
0.0
 30
0.0
 70
     1
 40
0.3999992
 41
0.3999992
  0
VERTEX
  5
18A5
  8
TOPLAYER
 10
1269.400001199999906
 20
1280.7950000000000728
 30
0.0
 42
1.0
  0
VERTEX
  5
18A6
  8
TOPLAYER
 10
1269.8000004000000445
 20
1280.7950000000000728
 30
0.0
 42
1.0
  0
SEQEND
  5
18A7
  8
TOPLAYER
  0
POLYLINE
  5
27C
  8
TOPPASTE
 66
     1
 10
0.0
 20
0.0
 30
0.0
 40
0.8000009399999999
 41
0.8000009399999999
  0
VERTEX
  5
18A8
  8
TOPPASTE
 10
1270.3999991999999111
 20
1278.2550000000001091
 30
0.0
  0
VERTEX
  5
18A9
  8
TOPPASTE
 10
1269.6000008000000889
 20
1278.2550000000001091
 30
0.0
  0
SEQEND
  5
18AA
  8
TOPPASTE
  0
POLYLINE
  5
27D
  8
TOPPASTE
 66
     1
 10
0.0
 20
0.0
 30
0.0
 70
     1
 40
0.3999992
 41
0.3999992
  0
VERTEX
  5
18AB
  8
TOPPASTE
 10
1270.1999995999999555
 20
1278.2550000000001091
 30
0.0
 42
1.0
  0
VERTEX
  5
18AC
  8
TOPPASTE
 10
1270.599998800000094
 20
1278.2550000000001091
 30
0.0
 42
1.0
  0
SEQEND
  5
18AD
  8
TOPPASTE
  0
POLYLINE
  5
27E
  8
TOPPASTE
 66
     1
 10
0.0
 20
0.0
 30
0.0
 70
     1
 40
0.3999992
 41
0.3999992
  0
VERTEX
  5
18AE
  8
TOPPASTE
 10
1269.400001199999906
 20
1278.2550000000001091
 30
0.0
 42
1.0
  0
VERTEX
  5
18AF
  8
TOPPASTE
 10
1269.8000004000000445
 20
1278.2550000000001091
 30
0.0
 42
1.0
  0
SEQEND
  5
18B0
  8
TOPPASTE
  0
POLYLINE
  5
27F
  8
TOPSOLDER
 66
     1
 10
0.0
 20
0.0
 30
0.0
 40
1.003200939999999
 41
1.003200939999999
  0
VERTEX
  5
18B1
  8
TOPSOLDER
 10
1270.3999991999999111
 20
1278.2550000000001091
 30
0.0
  0
VERTEX
  5
18B2
  8
TOPSOLDER
 10
1269.6000008000000889
 20
1278.2550000000001091
 30
0.0
  0
SEQEND
  5
18B3
  8
TOPSOLDER
  0
POLYLINE
  5
280
  8
TOPSOLDER
 66
     1
 10
0.0
 20
0.0
 30
0.0
 70
     1
 40
0.5015992000000002
 41
0.5015992000000002
  0
VERTEX
  5
18B4
  8
TOPSOLDER
 10
1270.1491995999999745
 20
1278.2550000000001091
 30
0.0
 42
1.0
  0
VERTEX
  5
18B5
  8
TOPSOLDER
 10
1270.6507988000000751
 20
1278.2550000000001091
 30
0.0
 42
1.0
  0
SEQEND
  5
18B6
  8
TOPSOLDER
  0
POLYLINE
  5
281
  8
TOPSOLDER
 66
     1
 10
0.0
 20
0.0
 30
0.0
 70
     1
 40
0.5015992000000002
 41
0.5015992000000002
  0
VERTEX
  5
18B7
  8
TOPSOLDER
 10
1269.3492011999999249
 20
1278.2550000000001091
 30
0.0
 42
1.0
  0
VERTEX
  5
18B8
  8
TOPSOLDER
 10
1269.8508004000000255
 20
1278.2550000000001091
 30
0.0
 42
1.0
  0
SEQEND
  5
18B9
  8
TOPSOLDER
  0
POLYLINE
  5
282
  8
TOPLAYER
 66
     1
 10
0.0
 20
0.0
 30
0.0
 40
0.8000009399999999
 41
0.8000009399999999
  0
VERTEX
  5
18BA
  8
TOPLAYER
 10
1270.3999991999999111
 20
1278.2550000000001091
 30
0.0
  0
VERTEX
  5
18BB
  8
TOPLAYER
 10
1269.6000008000000889
 20
1278.2550000000001091
 30
0.0
  0
SEQEND
  5
18BC
  8
TOPLAYER
  0
POLYLINE
  5
283
  8
TOPLAYER
 66
     1
 10
0.0
 20
0.0
 30
0.0
 70
     1
 40
0.3999992
 41
0.3999992
  0
VERTEX
  5
18BD
  8
TOPLAYER
 10
1270.1999995999999555
 20
1278.2550000000001091
 30
0.0
 42
1.0
  0
VERTEX
  5
18BE
  8
TOPLAYER
 10
1270.599998800000094
 20
1278.2550000000001091
 30
0.0
 42
1.0
  0
SEQEND
  5
18BF
  8
TOPLAYER
  0
POLYLINE
  5
284
  8
TOPLAYER
 66
     1
 10
0.0
 20
0.0
 30
0.0
 70
     1
 40
0.3999992
 41
0.3999992
  0
VERTEX
  5
18C0
  8
TOPLAYER
 10
1269.400001199999906
 20
1278.2550000000001091
 30
0.0
 42
1.0
  0
VERTEX
  5
18C1
  8
TOPLAYER
 10
1269.8000004000000445
 20
1278.2550000000001091
 30
0.0
 42
1.0
  0
SEQEND
  5
18C2
  8
TOPLAYER
  0
POLYLINE
  5
285
  8
TOPPASTE
 66
     1
 10
0.0
 20
0.0
 30
0.0
 40
0.8000009399999999
 41
0.8000009399999999
  0
VERTEX
  5
18C3
  8
TOPPASTE
 10
1270.3999991999999111
 20
1276.9849999999999
 30
0.0
  0
VERTEX
  5
18C4
  8
TOPPASTE
 10
1269.6000008000000889
 20
1276.9849999999999
 30
0.0
  0
SEQEND
  5
18C5
  8
TOPPASTE
  0
POLYLINE
  5
286
  8
TOPPASTE
 66
     1
 10
0.0
 20
0.0
 30
0.0
 70
     1
 40
0.3999992
 41
0.3999992
  0
VERTEX
  5
18C6
  8
TOPPASTE
 10
1270.1999995999999555
 20
1276.9849999999999
 30
0.0
 42
1.0
  0
VERTEX
  5
18C7
  8
TOPPASTE
 10
1270.599998800000094
 20
1276.9849999999999
 30
0.0
 42
1.0
  0
SEQEND
  5
18C8
  8
TOPPASTE
  0
POLYLINE
  5
287
  8
TOPPASTE
 66
     1
 10
0.0
 20
0.0
 30
0.0
 70
     1
 40
0.3999992
 41
0.3999992
  0
VERTEX
  5
18C9
  8
TOPPASTE
 10
1269.400001199999906
 20
1276.9849999999999
 30
0.0
 42
1.0
  0
VERTEX
  5
18CA
  8
TOPPASTE
 10
1269.8000004000000445
 20
1276.9849999999999
 30
0.0
 42
1.0
  0
SEQEND
  5
18CB
  8
TOPPASTE
  0
POLYLINE
  5
288
  8
TOPSOLDER
 66
     1
 10
0.0
 20
0.0
 30
0.0
 40
1.003200939999999
 41
1.003200939999999
  0
VERTEX
  5
18CC
  8
TOPSOLDER
 10
1270.3999991999999111
 20
1276.9849999999999
 30
0.0
  0
VERTEX
  5
18CD
  8
TOPSOLDER
 10
1269.6000008000000889
 20
1276.9849999999999
 30
0.0
  0
SEQEND
  5
18CE
  8
TOPSOLDER
  0
POLYLINE
  5
289
  8
TOPSOLDER
 66
     1
 10
0.0
 20
0.0
 30
0.0
 70
     1
 40
0.5015992000000002
 41
0.5015992000000002
  0
VERTEX
  5
18CF
  8
TOPSOLDER
 10
1270.1491995999999745
 20
1276.9849999999999
 30
0.0
 42
1.0
  0
VERTEX
  5
18D0
  8
TOPSOLDER
 10
1270.6507988000000751
 20
1276.9849999999999
 30
0.0
 42
1.0
  0
SEQEND
  5
18D1
  8
TOPSOLDER
  0
POLYLINE
  5
28A
  8
TOPSOLDER
 66
     1
 10
0.0
 20
0.0
 30
0.0
 70
     1
 40
0.5015992000000002
 41
0.5015992000000002
  0
VERTEX
  5
18D2
  8
TOPSOLDER
 10
1269.3492011999999249
 20
1276.9849999999999
 30
0.0
 42
1.0
  0
VERTEX
  5
18D3
  8
TOPSOLDER
 10
1269.8508004000000255
 20
1276.9849999999999
 30
0.0
 42
1.0
  0
SEQEND
  5
18D4
  8
TOPSOLDER
  0
POLYLINE
  5
28B
  8
TOPLAYER
 66
     1
 10
0.0
 20
0.0
 30
0.0
 40
0.8000009399999999
 41
0.8000009399999999
  0
VERTEX
  5
18D5
  8
TOPLAYER
 10
1270.3999991999999111
 20
1276.9849999999999
 30
0.0
  0
VERTEX
  5
18D6
  8
TOPLAYER
 10
1269.6000008000000889
 20
1276.9849999999999
 30
0.0
  0
SEQEND
  5
18D7
  8
TOPLAYER
  0
POLYLINE
  5
28C
  8
TOPLAYER
 66
     1
 10
0.0
 20
0.0
 30
0.0
 70
     1
 40
0.3999992
 41
0.3999992
  0
VERTEX
  5
18D8
  8
TOPLAYER
 10
1270.1999995999999555
 20
1276.9849999999999
 30
0.0
 42
1.0
  0
VERTEX
  5
18D9
  8
TOPLAYER
 10
1270.599998800000094
 20
1276.9849999999999
 30
0.0
 42
1.0
  0
SEQEND
  5
18DA
  8
TOPLAYER
  0
POLYLINE
  5
28D
  8
TOPLAYER
 66
     1
 10
0.0
 20
0.0
 30
0.0
 70
     1
 40
0.3999992
 41
0.3999992
  0
VERTEX
  5
18DB
  8
TOPLAYER
 10
1269.400001199999906
 20
1276.9849999999999
 30
0.0
 42
1.0
  0
VERTEX
  5
18DC
  8
TOPLAYER
 10
1269.8000004000000445
 20
1276.9849999999999
 30
0.0
 42
1.0
  0
SEQEND
  5
18DD
  8
TOPLAYER
  0
POLYLINE
  5
28E
  8
TOPPASTE
 66
     1
 10
0.0
 20
0.0
 30
0.0
 40
0.8000009399999999
 41
0.8000009399999999
  0
VERTEX
  5
18DE
  8
TOPPASTE
 10
1270.3999991999999111
 20
1287.1449999999999818
 30
0.0
  0
VERTEX
  5
18DF
  8
TOPPASTE
 10
1269.6000008000000889
 20
1287.1449999999999818
 30
0.0
  0
SEQEND
  5
18E0
  8
TOPPASTE
  0
POLYLINE
  5
28F
  8
TOPPASTE
 66
     1
 10
0.0
 20
0.0
 30
0.0
 70
     1
 40
0.3999992
 41
0.3999992
  0
VERTEX
  5
18E1
  8
TOPPASTE
 10
1270.1999995999999555
 20
1287.1449999999999818
 30
0.0
 42
1.0
  0
VERTEX
  5
18E2
  8
TOPPASTE
 10
1270.599998800000094
 20
1287.1449999999999818
 30
0.0
 42
1.0
  0
SEQEND
  5
18E3
  8
TOPPASTE
  0
POLYLINE
  5
290
  8
TOPPASTE
 66
     1
 10
0.0
 20
0.0
 30
0.0
 70
     1
 40
0.3999992
 41
0.3999992
  0
VERTEX
  5
18E4
  8
TOPPASTE
 10
1269.400001199999906
 20
1287.1449999999999818
 30
0.0
 42
1.0
  0
VERTEX
  5
18E5
  8
TOPPASTE
 10
1269.8000004000000445
 20
1287.1449999999999818
 30
0.0
 42
1.0
  0
SEQEND
  5
18E6
  8
TOPPASTE
  0
POLYLINE
  5
291
  8
TOPSOLDER
 66
     1
 10
0.0
 20
0.0
 30
0.0
 40
1.003200939999999
 41
1.003200939999999
  0
VERTEX
  5
18E7
  8
TOPSOLDER
 10
1270.3999991999999111
 20
1287.1449999999999818
 30
0.0
  0
VERTEX
  5
18E8
  8
TOPSOLDER
 10
1269.6000008000000889
 20
1287.1449999999999818
 30
0.0
  0
SEQEND
  5
18E9
  8
TOPSOLDER
  0
POLYLINE
  5
292
  8
TOPSOLDER
 66
     1
 10
0.0
 20
0.0
 30
0.0
 70
     1
 40
0.5015992000000002
 41
0.5015992000000002
  0
VERTEX
  5
18EA
  8
TOPSOLDER
 10
1270.1491995999999745
 20
1287.1449999999999818
 30
0.0
 42
1.0
  0
VERTEX
  5
18EB
  8
TOPSOLDER
 10
1270.6507988000000751
 20
1287.1449999999999818
 30
0.0
 42
1.0
  0
SEQEND
  5
18EC
  8
TOPSOLDER
  0
POLYLINE
  5
293
  8
TOPSOLDER
 66
     1
 10
0.0
 20
0.0
 30
0.0
 70
     1
 40
0.5015992000000002
 41
0.5015992000000002
  0
VERTEX
  5
18ED
  8
TOPSOLDER
 10
1269.3492011999999249
 20
1287.1449999999999818
 30
0.0
 42
1.0
  0
VERTEX
  5
18EE
  8
TOPSOLDER
 10
1269.8508004000000255
 20
1287.1449999999999818
 30
0.0
 42
1.0
  0
SEQEND
  5
18EF
  8
TOPSOLDER
  0
POLYLINE
  5
294
  8
TOPLAYER
 66
     1
 10
0.0
 20
0.0
 30
0.0
 40
0.8000009399999999
 41
0.8000009399999999
  0
VERTEX
  5
18F0
  8
TOPLAYER
 10
1270.3999991999999111
 20
1287.1449999999999818
 30
0.0
  0
VERTEX
  5
18F1
  8
TOPLAYER
 10
1269.6000008000000889
 20
1287.1449999999999818
 30
0.0
  0
SEQEND
  5
18F2
  8
TOPLAYER
  0
POLYLINE
  5
295
  8
TOPLAYER
 66
     1
 10
0.0
 20
0.0
 30
0.0
 70
     1
 40
0.3999992
 41
0.3999992
  0
VERTEX
  5
18F3
  8
TOPLAYER
 10
1270.1999995999999555
 20
1287.1449999999999818
 30
0.0
 42
1.0
  0
VERTEX
  5
18F4
  8
TOPLAYER
 10
1270.599998800000094
 20
1287.1449999999999818
 30
0.0
 42
1.0
  0
SEQEND
  5
18F5
  8
TOPLAYER
  0
POLYLINE
  5
296
  8
TOPLAYER
 66
     1
 10
0.0
 20
0.0
 30
0.0
 70
     1
 40
0.3999992
 41
0.3999992
  0
VERTEX
  5
18F6
  8
TOPLAYER
 10
1269.400001199999906
 20
1287.1449999999999818
 30
0.0
 42
1.0
  0
VERTEX
  5
18F7
  8
TOPLAYER
 10
1269.8000004000000445
 20
1287.1449999999999818
 30
0.0
 42
1.0
  0
SEQEND
  5
18F8
  8
TOPLAYER
  0
POLYLINE
  5
297
  8
TOPPASTE
 66
     1
 10
0.0
 20
0.0
 30
0.0
 40
0.8000009399999999
 41
0.8000009399999999
  0
VERTEX
  5
18F9
  8
TOPPASTE
 10
1270.3999991999999111
 20
1288.4149999999999636
 30
0.0
  0
VERTEX
  5
18FA
  8
TOPPASTE
 10
1269.6000008000000889
 20
1288.4149999999999636
 30
0.0
  0
SEQEND
  5
18FB
  8
TOPPASTE
  0
POLYLINE
  5
298
  8
TOPPASTE
 66
     1
 10
0.0
 20
0.0
 30
0.0
 70
     1
 40
0.3999992
 41
0.3999992
  0
VERTEX
  5
18FC
  8
TOPPASTE
 10
1270.1999995999999555
 20
1288.4149999999999636
 30
0.0
 42
1.0
  0
VERTEX
  5
18FD
  8
TOPPASTE
 10
1270.599998800000094
 20
1288.4149999999999636
 30
0.0
 42
1.0
  0
SEQEND
  5
18FE
  8
TOPPASTE
  0
POLYLINE
  5
299
  8
TOPPASTE
 66
     1
 10
0.0
 20
0.0
 30
0.0
 70
     1
 40
0.3999992
 41
0.3999992
  0
VERTEX
  5
18FF
  8
TOPPASTE
 10
1269.400001199999906
 20
1288.4149999999999636
 30
0.0
 42
1.0
  0
VERTEX
  5
1900
  8
TOPPASTE
 10
1269.8000004000000445
 20
1288.4149999999999636
 30
0.0
 42
1.0
  0
SEQEND
  5
1901
  8
TOPPASTE
  0
POLYLINE
  5
29A
  8
TOPSOLDER
 66
     1
 10
0.0
 20
0.0
 30
0.0
 40
1.003200939999999
 41
1.003200939999999
  0
VERTEX
  5
1902
  8
TOPSOLDER
 10
1270.3999991999999111
 20
1288.4149999999999636
 30
0.0
  0
VERTEX
  5
1903
  8
TOPSOLDER
 10
1269.6000008000000889
 20
1288.4149999999999636
 30
0.0
  0
SEQEND
  5
1904
  8
TOPSOLDER
  0
POLYLINE
  5
29B
  8
TOPSOLDER
 66
     1
 10
0.0
 20
0.0
 30
0.0
 70
     1
 40
0.5015992000000002
 41
0.5015992000000002
  0
VERTEX
  5
1905
  8
TOPSOLDER
 10
1270.1491995999999745
 20
1288.4149999999999636
 30
0.0
 42
1.0
  0
VERTEX
  5
1906
  8
TOPSOLDER
 10
1270.6507988000000751
 20
1288.4149999999999636
 30
0.0
 42
1.0
  0
SEQEND
  5
1907
  8
TOPSOLDER
  0
POLYLINE
  5
29C
  8
TOPSOLDER
 66
     1
 10
0.0
 20
0.0
 30
0.0
 70
     1
 40
0.5015992000000002
 41
0.5015992000000002
  0
VERTEX
  5
1908
  8
TOPSOLDER
 10
1269.3492011999999249
 20
1288.4149999999999636
 30
0.0
 42
1.0
  0
VERTEX
  5
1909
  8
TOPSOLDER
 10
1269.8508004000000255
 20
1288.4149999999999636
 30
0.0
 42
1.0
  0
SEQEND
  5
190A
  8
TOPSOLDER
  0
POLYLINE
  5
29D
  8
TOPLAYER
 66
     1
 10
0.0
 20
0.0
 30
0.0
 40
0.8000009399999999
 41
0.8000009399999999
  0
VERTEX
  5
190B
  8
TOPLAYER
 10
1270.3999991999999111
 20
1288.4149999999999636
 30
0.0
  0
VERTEX
  5
190C
  8
TOPLAYER
 10
1269.6000008000000889
 20
1288.4149999999999636
 30
0.0
  0
SEQEND
  5
190D
  8
TOPLAYER
  0
POLYLINE
  5
29E
  8
TOPLAYER
 66
     1
 10
0.0
 20
0.0
 30
0.0
 70
     1
 40
0.3999992
 41
0.3999992
  0
VERTEX
  5
190E
  8
TOPLAYER
 10
1270.1999995999999555
 20
1288.4149999999999636
 30
0.0
 42
1.0
  0
VERTEX
  5
190F
  8
TOPLAYER
 10
1270.599998800000094
 20
1288.4149999999999636
 30
0.0
 42
1.0
  0
SEQEND
  5
1910
  8
TOPLAYER
  0
POLYLINE
  5
29F
  8
TOPLAYER
 66
     1
 10
0.0
 20
0.0
 30
0.0
 70
     1
 40
0.3999992
 41
0.3999992
  0
VERTEX
  5
1911
  8
TOPLAYER
 10
1269.400001199999906
 20
1288.4149999999999636
 30
0.0
 42
1.0
  0
VERTEX
  5
1912
  8
TOPLAYER
 10
1269.8000004000000445
 20
1288.4149999999999636
 30
0.0
 42
1.0
  0
SEQEND
  5
1913
  8
TOPLAYER
  0
POLYLINE
  5
2A0
  8
TOPPASTE
 66
     1
 10
0.0
 20
0.0
 30
0.0
 40
0.8000009399999999
 41
0.8000009399999999
  0
VERTEX
  5
1914
  8
TOPPASTE
 10
1270.3999991999999111
 20
1290.9549999999999272
 30
0.0
  0
VERTEX
  5
1915
  8
TOPPASTE
 10
1269.6000008000000889
 20
1290.9549999999999272
 30
0.0
  0
SEQEND
  5
1916
  8
TOPPASTE
  0
POLYLINE
  5
2A1
  8
TOPPASTE
 66
     1
 10
0.0
 20
0.0
 30
0.0
 70
     1
 40
0.3999992
 41
0.3999992
  0
VERTEX
  5
1917
  8
TOPPASTE
 10
1270.1999995999999555
 20
1290.9549999999999272
 30
0.0
 42
1.0
  0
VERTEX
  5
1918
  8
TOPPASTE
 10
1270.599998800000094
 20
1290.9549999999999272
 30
0.0
 42
1.0
  0
SEQEND
  5
1919
  8
TOPPASTE
  0
POLYLINE
  5
2A2
  8
TOPPASTE
 66
     1
 10
0.0
 20
0.0
 30
0.0
 70
     1
 40
0.3999992
 41
0.3999992
  0
VERTEX
  5
191A
  8
TOPPASTE
 10
1269.400001199999906
 20
1290.9549999999999272
 30
0.0
 42
1.0
  0
VERTEX
  5
191B
  8
TOPPASTE
 10
1269.8000004000000445
 20
1290.9549999999999272
 30
0.0
 42
1.0
  0
SEQEND
  5
191C
  8
TOPPASTE
  0
POLYLINE
  5
2A3
  8
TOPSOLDER
 66
     1
 10
0.0
 20
0.0
 30
0.0
 40
1.003200939999999
 41
1.003200939999999
  0
VERTEX
  5
191D
  8
TOPSOLDER
 10
1270.3999991999999111
 20
1290.9549999999999272
 30
0.0
  0
VERTEX
  5
191E
  8
TOPSOLDER
 10
1269.6000008000000889
 20
1290.9549999999999272
 30
0.0
  0
SEQEND
  5
191F
  8
TOPSOLDER
  0
POLYLINE
  5
2A4
  8
TOPSOLDER
 66
     1
 10
0.0
 20
0.0
 30
0.0
 70
     1
 40
0.5015992000000002
 41
0.5015992000000002
  0
VERTEX
  5
1920
  8
TOPSOLDER
 10
1270.1491995999999745
 20
1290.9549999999999272
 30
0.0
 42
1.0
  0
VERTEX
  5
1921
  8
TOPSOLDER
 10
1270.6507988000000751
 20
1290.9549999999999272
 30
0.0
 42
1.0
  0
SEQEND
  5
1922
  8
TOPSOLDER
  0
POLYLINE
  5
2A5
  8
TOPSOLDER
 66
     1
 10
0.0
 20
0.0
 30
0.0
 70
     1
 40
0.5015992000000002
 41
0.5015992000000002
  0
VERTEX
  5
1923
  8
TOPSOLDER
 10
1269.3492011999999249
 20
1290.9549999999999272
 30
0.0
 42
1.0
  0
VERTEX
  5
1924
  8
TOPSOLDER
 10
1269.8508004000000255
 20
1290.9549999999999272
 30
0.0
 42
1.0
  0
SEQEND
  5
1925
  8
TOPSOLDER
  0
POLYLINE
  5
2A6
  8
TOPLAYER
 66
     1
 10
0.0
 20
0.0
 30
0.0
 40
0.8000009399999999
 41
0.8000009399999999
  0
VERTEX
  5
1926
  8
TOPLAYER
 10
1270.3999991999999111
 20
1290.9549999999999272
 30
0.0
  0
VERTEX
  5
1927
  8
TOPLAYER
 10
1269.6000008000000889
 20
1290.9549999999999272
 30
0.0
  0
SEQEND
  5
1928
  8
TOPLAYER
  0
POLYLINE
  5
2A7
  8
TOPLAYER
 66
     1
 10
0.0
 20
0.0
 30
0.0
 70
     1
 40
0.3999992
 41
0.3999992
  0
VERTEX
  5
1929
  8
TOPLAYER
 10
1270.1999995999999555
 20
1290.9549999999999272
 30
0.0
 42
1.0
  0
VERTEX
  5
192A
  8
TOPLAYER
 10
1270.599998800000094
 20
1290.9549999999999272
 30
0.0
 42
1.0
  0
SEQEND
  5
192B
  8
TOPLAYER
  0
POLYLINE
  5
2A8
  8
TOPLAYER
 66
     1
 10
0.0
 20
0.0
 30
0.0
 70
     1
 40
0.3999992
 41
0.3999992
  0
VERTEX
  5
192C
  8
TOPLAYER
 10
1269.400001199999906
 20
1290.9549999999999272
 30
0.0
 42
1.0
  0
VERTEX
  5
192D
  8
TOPLAYER
 10
1269.8000004000000445
 20
1290.9549999999999272
 30
0.0
 42
1.0
  0
SEQEND
  5
192E
  8
TOPLAYER
  0
POLYLINE
  5
2A9
  8
TOPPASTE
 66
     1
 10
0.0
 20
0.0
 30
0.0
 40
0.8000009399999999
 41
0.8000009399999999
  0
VERTEX
  5
192F
  8
TOPPASTE
 10
1270.3999991999999111
 20
1289.6849999999999454
 30
0.0
  0
VERTEX
  5
1930
  8
TOPPASTE
 10
1269.6000008000000889
 20
1289.6849999999999454
 30
0.0
  0
SEQEND
  5
1931
  8
TOPPASTE
  0
POLYLINE
  5
2AA
  8
TOPPASTE
 66
     1
 10
0.0
 20
0.0
 30
0.0
 70
     1
 40
0.3999992
 41
0.3999992
  0
VERTEX
  5
1932
  8
TOPPASTE
 10
1270.1999995999999555
 20
1289.6849999999999454
 30
0.0
 42
1.0
  0
VERTEX
  5
1933
  8
TOPPASTE
 10
1270.599998800000094
 20
1289.6849999999999454
 30
0.0
 42
1.0
  0
SEQEND
  5
1934
  8
TOPPASTE
  0
POLYLINE
  5
2AB
  8
TOPPASTE
 66
     1
 10
0.0
 20
0.0
 30
0.0
 70
     1
 40
0.3999992
 41
0.3999992
  0
VERTEX
  5
1935
  8
TOPPASTE
 10
1269.400001199999906
 20
1289.6849999999999454
 30
0.0
 42
1.0
  0
VERTEX
  5
1936
  8
TOPPASTE
 10
1269.8000004000000445
 20
1289.6849999999999454
 30
0.0
 42
1.0
  0
SEQEND
  5
1937
  8
TOPPASTE
  0
POLYLINE
  5
2AC
  8
TOPSOLDER
 66
     1
 10
0.0
 20
0.0
 30
0.0
 40
1.003200939999999
 41
1.003200939999999
  0
VERTEX
  5
1938
  8
TOPSOLDER
 10
1270.3999991999999111
 20
1289.6849999999999454
 30
0.0
  0
VERTEX
  5
1939
  8
TOPSOLDER
 10
1269.6000008000000889
 20
1289.6849999999999454
 30
0.0
  0
SEQEND
  5
193A
  8
TOPSOLDER
  0
POLYLINE
  5
2AD
  8
TOPSOLDER
 66
     1
 10
0.0
 20
0.0
 30
0.0
 70
     1
 40
0.5015992000000002
 41
0.5015992000000002
  0
VERTEX
  5
193B
  8
TOPSOLDER
 10
1270.1491995999999745
 20
1289.6849999999999454
 30
0.0
 42
1.0
  0
VERTEX
  5
193C
  8
TOPSOLDER
 10
1270.6507988000000751
 20
1289.6849999999999454
 30
0.0
 42
1.0
  0
SEQEND
  5
193D
  8
TOPSOLDER
  0
POLYLINE
  5
2AE
  8
TOPSOLDER
 66
     1
 10
0.0
 20
0.0
 30
0.0
 70
     1
 40
0.5015992000000002
 41
0.5015992000000002
  0
VERTEX
  5
193E
  8
TOPSOLDER
 10
1269.3492011999999249
 20
1289.6849999999999454
 30
0.0
 42
1.0
  0
VERTEX
  5
193F
  8
TOPSOLDER
 10
1269.8508004000000255
 20
1289.6849999999999454
 30
0.0
 42
1.0
  0
SEQEND
  5
1940
  8
TOPSOLDER
  0
POLYLINE
  5
2AF
  8
TOPLAYER
 66
     1
 10
0.0
 20
0.0
 30
0.0
 40
0.8000009399999999
 41
0.8000009399999999
  0
VERTEX
  5
1941
  8
TOPLAYER
 10
1270.3999991999999111
 20
1289.6849999999999454
 30
0.0
  0
VERTEX
  5
1942
  8
TOPLAYER
 10
1269.6000008000000889
 20
1289.6849999999999454
 30
0.0
  0
SEQEND
  5
1943
  8
TOPLAYER
  0
POLYLINE
  5
2B0
  8
TOPLAYER
 66
     1
 10
0.0
 20
0.0
 30
0.0
 70
     1
 40
0.3999992
 41
0.3999992
  0
VERTEX
  5
1944
  8
TOPLAYER
 10
1270.1999995999999555
 20
1289.6849999999999454
 30
0.0
 42
1.0
  0
VERTEX
  5
1945
  8
TOPLAYER
 10
1270.599998800000094
 20
1289.6849999999999454
 30
0.0
 42
1.0
  0
SEQEND
  5
1946
  8
TOPLAYER
  0
POLYLINE
  5
2B1
  8
TOPLAYER
 66
     1
 10
0.0
 20
0.0
 30
0.0
 70
     1
 40
0.3999992
 41
0.3999992
  0
VERTEX
  5
1947
  8
TOPLAYER
 10
1269.400001199999906
 20
1289.6849999999999454
 30
0.0
 42
1.0
  0
VERTEX
  5
1948
  8
TOPLAYER
 10
1269.8000004000000445
 20
1289.6849999999999454
 30
0.0
 42
1.0
  0
SEQEND
  5
1949
  8
TOPLAYER
  0
POLYLINE
  5
2B2
  8
TOPPASTE
 66
     1
 10
0.0
 20
0.0
 30
0.0
 40
0.8000009399999999
 41
0.8000009399999999
  0
VERTEX
  5
194A
  8
TOPPASTE
 10
1270.3999991999999111
 20
1284.6050000000000182
 30
0.0
  0
VERTEX
  5
194B
  8
TOPPASTE
 10
1269.6000008000000889
 20
1284.6050000000000182
 30
0.0
  0
SEQEND
  5
194C
  8
TOPPASTE
  0
POLYLINE
  5
2B3
  8
TOPPASTE
 66
     1
 10
0.0
 20
0.0
 30
0.0
 70
     1
 40
0.3999992
 41
0.3999992
  0
VERTEX
  5
194D
  8
TOPPASTE
 10
1270.1999995999999555
 20
1284.6050000000000182
 30
0.0
 42
1.0
  0
VERTEX
  5
194E
  8
TOPPASTE
 10
1270.599998800000094
 20
1284.6050000000000182
 30
0.0
 42
1.0
  0
SEQEND
  5
194F
  8
TOPPASTE
  0
POLYLINE
  5
2B4
  8
TOPPASTE
 66
     1
 10
0.0
 20
0.0
 30
0.0
 70
     1
 40
0.3999992
 41
0.3999992
  0
VERTEX
  5
1950
  8
TOPPASTE
 10
1269.400001199999906
 20
1284.6050000000000182
 30
0.0
 42
1.0
  0
VERTEX
  5
1951
  8
TOPPASTE
 10
1269.8000004000000445
 20
1284.6050000000000182
 30
0.0
 42
1.0
  0
SEQEND
  5
1952
  8
TOPPASTE
  0
POLYLINE
  5
2B5
  8
TOPSOLDER
 66
     1
 10
0.0
 20
0.0
 30
0.0
 40
1.003200939999999
 41
1.003200939999999
  0
VERTEX
  5
1953
  8
TOPSOLDER
 10
1270.3999991999999111
 20
1284.6050000000000182
 30
0.0
  0
VERTEX
  5
1954
  8
TOPSOLDER
 10
1269.6000008000000889
 20
1284.6050000000000182
 30
0.0
  0
SEQEND
  5
1955
  8
TOPSOLDER
  0
POLYLINE
  5
2B6
  8
TOPSOLDER
 66
     1
 10
0.0
 20
0.0
 30
0.0
 70
     1
 40
0.5015992000000002
 41
0.5015992000000002
  0
VERTEX
  5
1956
  8
TOPSOLDER
 10
1270.1491995999999745
 20
1284.6050000000000182
 30
0.0
 42
1.0
  0
VERTEX
  5
1957
  8
TOPSOLDER
 10
1270.6507988000000751
 20
1284.6050000000000182
 30
0.0
 42
1.0
  0
SEQEND
  5
1958
  8
TOPSOLDER
  0
POLYLINE
  5
2B7
  8
TOPSOLDER
 66
     1
 10
0.0
 20
0.0
 30
0.0
 70
     1
 40
0.5015992000000002
 41
0.5015992000000002
  0
VERTEX
  5
1959
  8
TOPSOLDER
 10
1269.3492011999999249
 20
1284.6050000000000182
 30
0.0
 42
1.0
  0
VERTEX
  5
195A
  8
TOPSOLDER
 10
1269.8508004000000255
 20
1284.6050000000000182
 30
0.0
 42
1.0
  0
SEQEND
  5
195B
  8
TOPSOLDER
  0
POLYLINE
  5
2B8
  8
TOPLAYER
 66
     1
 10
0.0
 20
0.0
 30
0.0
 40
0.8000009399999999
 41
0.8000009399999999
  0
VERTEX
  5
195C
  8
TOPLAYER
 10
1270.3999991999999111
 20
1284.6050000000000182
 30
0.0
  0
VERTEX
  5
195D
  8
TOPLAYER
 10
1269.6000008000000889
 20
1284.6050000000000182
 30
0.0
  0
SEQEND
  5
195E
  8
TOPLAYER
  0
POLYLINE
  5
2B9
  8
TOPLAYER
 66
     1
 10
0.0
 20
0.0
 30
0.0
 70
     1
 40
0.3999992
 41
0.3999992
  0
VERTEX
  5
195F
  8
TOPLAYER
 10
1270.1999995999999555
 20
1284.6050000000000182
 30
0.0
 42
1.0
  0
VERTEX
  5
1960
  8
TOPLAYER
 10
1270.599998800000094
 20
1284.6050000000000182
 30
0.0
 42
1.0
  0
SEQEND
  5
1961
  8
TOPLAYER
  0
POLYLINE
  5
2BA
  8
TOPLAYER
 66
     1
 10
0.0
 20
0.0
 30
0.0
 70
     1
 40
0.3999992
 41
0.3999992
  0
VERTEX
  5
1962
  8
TOPLAYER
 10
1269.400001199999906
 20
1284.6050000000000182
 30
0.0
 42
1.0
  0
VERTEX
  5
1963
  8
TOPLAYER
 10
1269.8000004000000445
 20
1284.6050000000000182
 30
0.0
 42
1.0
  0
SEQEND
  5
1964
  8
TOPLAYER
  0
POLYLINE
  5
2BB
  8
TOPPASTE
 66
     1
 10
0.0
 20
0.0
 30
0.0
 40
0.8000009399999999
 41
0.8000009399999999
  0
VERTEX
  5
1965
  8
TOPPASTE
 10
1270.3999991999999111
 20
1285.875
 30
0.0
  0
VERTEX
  5
1966
  8
TOPPASTE
 10
1269.6000008000000889
 20
1285.875
 30
0.0
  0
SEQEND
  5
1967
  8
TOPPASTE
  0
POLYLINE
  5
2BC
  8
TOPPASTE
 66
     1
 10
0.0
 20
0.0
 30
0.0
 70
     1
 40
0.3999992
 41
0.3999992
  0
VERTEX
  5
1968
  8
TOPPASTE
 10
1270.1999995999999555
 20
1285.875
 30
0.0
 42
1.0
  0
VERTEX
  5
1969
  8
TOPPASTE
 10
1270.599998800000094
 20
1285.875
 30
0.0
 42
1.0
  0
SEQEND
  5
196A
  8
TOPPASTE
  0
POLYLINE
  5
2BD
  8
TOPPASTE
 66
     1
 10
0.0
 20
0.0
 30
0.0
 70
     1
 40
0.3999992
 41
0.3999992
  0
VERTEX
  5
196B
  8
TOPPASTE
 10
1269.400001199999906
 20
1285.875
 30
0.0
 42
1.0
  0
VERTEX
  5
196C
  8
TOPPASTE
 10
1269.8000004000000445
 20
1285.875
 30
0.0
 42
1.0
  0
SEQEND
  5
196D
  8
TOPPASTE
  0
POLYLINE
  5
2BE
  8
TOPSOLDER
 66
     1
 10
0.0
 20
0.0
 30
0.0
 40
1.003200939999999
 41
1.003200939999999
  0
VERTEX
  5
196E
  8
TOPSOLDER
 10
1270.3999991999999111
 20
1285.875
 30
0.0
  0
VERTEX
  5
196F
  8
TOPSOLDER
 10
1269.6000008000000889
 20
1285.875
 30
0.0
  0
SEQEND
  5
1970
  8
TOPSOLDER
  0
POLYLINE
  5
2BF
  8
TOPSOLDER
 66
     1
 10
0.0
 20
0.0
 30
0.0
 70
     1
 40
0.5015992000000002
 41
0.5015992000000002
  0
VERTEX
  5
1971
  8
TOPSOLDER
 10
1270.1491995999999745
 20
1285.875
 30
0.0
 42
1.0
  0
VERTEX
  5
1972
  8
TOPSOLDER
 10
1270.6507988000000751
 20
1285.875
 30
0.0
 42
1.0
  0
SEQEND
  5
1973
  8
TOPSOLDER
  0
POLYLINE
  5
2C0
  8
TOPSOLDER
 66
     1
 10
0.0
 20
0.0
 30
0.0
 70
     1
 40
0.5015992000000002
 41
0.5015992000000002
  0
VERTEX
  5
1974
  8
TOPSOLDER
 10
1269.3492011999999249
 20
1285.875
 30
0.0
 42
1.0
  0
VERTEX
  5
1975
  8
TOPSOLDER
 10
1269.8508004000000255
 20
1285.875
 30
0.0
 42
1.0
  0
SEQEND
  5
1976
  8
TOPSOLDER
  0
POLYLINE
  5
2C1
  8
TOPLAYER
 66
     1
 10
0.0
 20
0.0
 30
0.0
 40
0.8000009399999999
 41
0.8000009399999999
  0
VERTEX
  5
1977
  8
TOPLAYER
 10
1270.3999991999999111
 20
1285.875
 30
0.0
  0
VERTEX
  5
1978
  8
TOPLAYER
 10
1269.6000008000000889
 20
1285.875
 30
0.0
  0
SEQEND
  5
1979
  8
TOPLAYER
  0
POLYLINE
  5
2C2
  8
TOPLAYER
 66
     1
 10
0.0
 20
0.0
 30
0.0
 70
     1
 40
0.3999992
 41
0.3999992
  0
VERTEX
  5
197A
  8
TOPLAYER
 10
1270.1999995999999555
 20
1285.875
 30
0.0
 42
1.0
  0
VERTEX
  5
197B
  8
TOPLAYER
 10
1270.599998800000094
 20
1285.875
 30
0.0
 42
1.0
  0
SEQEND
  5
197C
  8
TOPLAYER
  0
POLYLINE
  5
2C3
  8
TOPLAYER
 66
     1
 10
0.0
 20
0.0
 30
0.0
 70
     1
 40
0.3999992
 41
0.3999992
  0
VERTEX
  5
197D
  8
TOPLAYER
 10
1269.400001199999906
 20
1285.875
 30
0.0
 42
1.0
  0
VERTEX
  5
197E
  8
TOPLAYER
 10
1269.8000004000000445
 20
1285.875
 30
0.0
 42
1.0
  0
SEQEND
  5
197F
  8
TOPLAYER
  0
POLYLINE
  5
2C4
  8
TOPPASTE
 66
     1
 10
0.0
 20
0.0
 30
0.0
 40
0.8000009399999999
 41
0.8000009399999999
  0
VERTEX
  5
1980
  8
TOPPASTE
 10
1270.3999991999999111
 20
1283.3350000000000364
 30
0.0
  0
VERTEX
  5
1981
  8
TOPPASTE
 10
1269.6000008000000889
 20
1283.3350000000000364
 30
0.0
  0
SEQEND
  5
1982
  8
TOPPASTE
  0
POLYLINE
  5
2C5
  8
TOPPASTE
 66
     1
 10
0.0
 20
0.0
 30
0.0
 70
     1
 40
0.3999992
 41
0.3999992
  0
VERTEX
  5
1983
  8
TOPPASTE
 10
1270.1999995999999555
 20
1283.3350000000000364
 30
0.0
 42
1.0
  0
VERTEX
  5
1984
  8
TOPPASTE
 10
1270.599998800000094
 20
1283.3350000000000364
 30
0.0
 42
1.0
  0
SEQEND
  5
1985
  8
TOPPASTE
  0
POLYLINE
  5
2C6
  8
TOPPASTE
 66
     1
 10
0.0
 20
0.0
 30
0.0
 70
     1
 40
0.3999992
 41
0.3999992
  0
VERTEX
  5
1986
  8
TOPPASTE
 10
1269.400001199999906
 20
1283.3350000000000364
 30
0.0
 42
1.0
  0
VERTEX
  5
1987
  8
TOPPASTE
 10
1269.8000004000000445
 20
1283.3350000000000364
 30
0.0
 42
1.0
  0
SEQEND
  5
1988
  8
TOPPASTE
  0
POLYLINE
  5
2C7
  8
TOPSOLDER
 66
     1
 10
0.0
 20
0.0
 30
0.0
 40
1.003200939999999
 41
1.003200939999999
  0
VERTEX
  5
1989
  8
TOPSOLDER
 10
1270.3999991999999111
 20
1283.3350000000000364
 30
0.0
  0
VERTEX
  5
198A
  8
TOPSOLDER
 10
1269.6000008000000889
 20
1283.3350000000000364
 30
0.0
  0
SEQEND
  5
198B
  8
TOPSOLDER
  0
POLYLINE
  5
2C8
  8
TOPSOLDER
 66
     1
 10
0.0
 20
0.0
 30
0.0
 70
     1
 40
0.5015992000000002
 41
0.5015992000000002
  0
VERTEX
  5
198C
  8
TOPSOLDER
 10
1270.1491995999999745
 20
1283.3350000000000364
 30
0.0
 42
1.0
  0
VERTEX
  5
198D
  8
TOPSOLDER
 10
1270.6507988000000751
 20
1283.3350000000000364
 30
0.0
 42
1.0
  0
SEQEND
  5
198E
  8
TOPSOLDER
  0
POLYLINE
  5
2C9
  8
TOPSOLDER
 66
     1
 10
0.0
 20
0.0
 30
0.0
 70
     1
 40
0.5015992000000002
 41
0.5015992000000002
  0
VERTEX
  5
198F
  8
TOPSOLDER
 10
1269.3492011999999249
 20
1283.3350000000000364
 30
0.0
 42
1.0
  0
VERTEX
  5
1990
  8
TOPSOLDER
 10
1269.8508004000000255
 20
1283.3350000000000364
 30
0.0
 42
1.0
  0
SEQEND
  5
1991
  8
TOPSOLDER
  0
POLYLINE
  5
2CA
  8
TOPLAYER
 66
     1
 10
0.0
 20
0.0
 30
0.0
 40
0.8000009399999999
 41
0.8000009399999999
  0
VERTEX
  5
1992
  8
TOPLAYER
 10
1270.3999991999999111
 20
1283.3350000000000364
 30
0.0
  0
VERTEX
  5
1993
  8
TOPLAYER
 10
1269.6000008000000889
 20
1283.3350000000000364
 30
0.0
  0
SEQEND
  5
1994
  8
TOPLAYER
  0
POLYLINE
  5
2CB
  8
TOPLAYER
 66
     1
 10
0.0
 20
0.0
 30
0.0
 70
     1
 40
0.3999992
 41
0.3999992
  0
VERTEX
  5
1995
  8
TOPLAYER
 10
1270.1999995999999555
 20
1283.3350000000000364
 30
0.0
 42
1.0
  0
VERTEX
  5
1996
  8
TOPLAYER
 10
1270.599998800000094
 20
1283.3350000000000364
 30
0.0
 42
1.0
  0
SEQEND
  5
1997
  8
TOPLAYER
  0
POLYLINE
  5
2CC
  8
TOPLAYER
 66
     1
 10
0.0
 20
0.0
 30
0.0
 70
     1
 40
0.3999992
 41
0.3999992
  0
VERTEX
  5
1998
  8
TOPLAYER
 10
1269.400001199999906
 20
1283.3350000000000364
 30
0.0
 42
1.0
  0
VERTEX
  5
1999
  8
TOPLAYER
 10
1269.8000004000000445
 20
1283.3350000000000364
 30
0.0
 42
1.0
  0
SEQEND
  5
199A
  8
TOPLAYER
  0
POLYLINE
  5
2CD
  8
TOPPASTE
 66
     1
 10
0.0
 20
0.0
 30
0.0
 40
0.8000009399999999
 41
0.8000009399999999
  0
VERTEX
  5
199B
  8
TOPPASTE
 10
1270.3999991999999111
 20
1282.0650000000000546
 30
0.0
  0
VERTEX
  5
199C
  8
TOPPASTE
 10
1269.6000008000000889
 20
1282.0650000000000546
 30
0.0
  0
SEQEND
  5
199D
  8
TOPPASTE
  0
POLYLINE
  5
2CE
  8
TOPPASTE
 66
     1
 10
0.0
 20
0.0
 30
0.0
 70
     1
 40
0.3999992
 41
0.3999992
  0
VERTEX
  5
199E
  8
TOPPASTE
 10
1270.1999995999999555
 20
1282.0650000000000546
 30
0.0
 42
1.0
  0
VERTEX
  5
199F
  8
TOPPASTE
 10
1270.599998800000094
 20
1282.0650000000000546
 30
0.0
 42
1.0
  0
SEQEND
  5
19A0
  8
TOPPASTE
  0
POLYLINE
  5
2CF
  8
TOPPASTE
 66
     1
 10
0.0
 20
0.0
 30
0.0
 70
     1
 40
0.3999992
 41
0.3999992
  0
VERTEX
  5
19A1
  8
TOPPASTE
 10
1269.400001199999906
 20
1282.0650000000000546
 30
0.0
 42
1.0
  0
VERTEX
  5
19A2
  8
TOPPASTE
 10
1269.8000004000000445
 20
1282.0650000000000546
 30
0.0
 42
1.0
  0
SEQEND
  5
19A3
  8
TOPPASTE
  0
POLYLINE
  5
2D0
  8
TOPSOLDER
 66
     1
 10
0.0
 20
0.0
 30
0.0
 40
1.003200939999999
 41
1.003200939999999
  0
VERTEX
  5
19A4
  8
TOPSOLDER
 10
1270.3999991999999111
 20
1282.0650000000000546
 30
0.0
  0
VERTEX
  5
19A5
  8
TOPSOLDER
 10
1269.6000008000000889
 20
1282.0650000000000546
 30
0.0
  0
SEQEND
  5
19A6
  8
TOPSOLDER
  0
POLYLINE
  5
2D1
  8
TOPSOLDER
 66
     1
 10
0.0
 20
0.0
 30
0.0
 70
     1
 40
0.5015992000000002
 41
0.5015992000000002
  0
VERTEX
  5
19A7
  8
TOPSOLDER
 10
1270.1491995999999745
 20
1282.0650000000000546
 30
0.0
 42
1.0
  0
VERTEX
  5
19A8
  8
TOPSOLDER
 10
1270.6507988000000751
 20
1282.0650000000000546
 30
0.0
 42
1.0
  0
SEQEND
  5
19A9
  8
TOPSOLDER
  0
POLYLINE
  5
2D2
  8
TOPSOLDER
 66
     1
 10
0.0
 20
0.0
 30
0.0
 70
     1
 40
0.5015992000000002
 41
0.5015992000000002
  0
VERTEX
  5
19AA
  8
TOPSOLDER
 10
1269.3492011999999249
 20
1282.0650000000000546
 30
0.0
 42
1.0
  0
VERTEX
  5
19AB
  8
TOPSOLDER
 10
1269.8508004000000255
 20
1282.0650000000000546
 30
0.0
 42
1.0
  0
SEQEND
  5
19AC
  8
TOPSOLDER
  0
POLYLINE
  5
2D3
  8
TOPLAYER
 66
     1
 10
0.0
 20
0.0
 30
0.0
 40
0.8000009399999999
 41
0.8000009399999999
  0
VERTEX
  5
19AD
  8
TOPLAYER
 10
1270.3999991999999111
 20
1282.0650000000000546
 30
0.0
  0
VERTEX
  5
19AE
  8
TOPLAYER
 10
1269.6000008000000889
 20
1282.0650000000000546
 30
0.0
  0
SEQEND
  5
19AF
  8
TOPLAYER
  0
POLYLINE
  5
2D4
  8
TOPLAYER
 66
     1
 10
0.0
 20
0.0
 30
0.0
 70
     1
 40
0.3999992
 41
0.3999992
  0
VERTEX
  5
19B0
  8
TOPLAYER
 10
1270.1999995999999555
 20
1282.0650000000000546
 30
0.0
 42
1.0
  0
VERTEX
  5
19B1
  8
TOPLAYER
 10
1270.599998800000094
 20
1282.0650000000000546
 30
0.0
 42
1.0
  0
SEQEND
  5
19B2
  8
TOPLAYER
  0
POLYLINE
  5
2D5
  8
TOPLAYER
 66
     1
 10
0.0
 20
0.0
 30
0.0
 70
     1
 40
0.3999992
 41
0.3999992
  0
VERTEX
  5
19B3
  8
TOPLAYER
 10
1269.400001199999906
 20
1282.0650000000000546
 30
0.0
 42
1.0
  0
VERTEX
  5
19B4
  8
TOPLAYER
 10
1269.8000004000000445
 20
1282.0650000000000546
 30
0.0
 42
1.0
  0
SEQEND
  5
19B5
  8
TOPLAYER
  0
POLYLINE
  5
2D6
  8
TOPPASTE
 66
     1
 10
0.0
 20
0.0
 30
0.0
 40
0.8000009399999999
 41
0.8000009399999999
  0
VERTEX
  5
19B6
  8
TOPPASTE
 10
1270.3999991999999111
 20
1294.7650000000001
 30
0.0
  0
VERTEX
  5
19B7
  8
TOPPASTE
 10
1269.6000008000000889
 20
1294.7650000000001
 30
0.0
  0
SEQEND
  5
19B8
  8
TOPPASTE
  0
POLYLINE
  5
2D7
  8
TOPPASTE
 66
     1
 10
0.0
 20
0.0
 30
0.0
 70
     1
 40
0.3999992
 41
0.3999992
  0
VERTEX
  5
19B9
  8
TOPPASTE
 10
1270.1999995999999555
 20
1294.7650000000001
 30
0.0
 42
1.0
  0
VERTEX
  5
19BA
  8
TOPPASTE
 10
1270.599998800000094
 20
1294.7650000000001
 30
0.0
 42
1.0
  0
SEQEND
  5
19BB
  8
TOPPASTE
  0
POLYLINE
  5
2D8
  8
TOPPASTE
 66
     1
 10
0.0
 20
0.0
 30
0.0
 70
     1
 40
0.3999992
 41
0.3999992
  0
VERTEX
  5
19BC
  8
TOPPASTE
 10
1269.400001199999906
 20
1294.7650000000001
 30
0.0
 42
1.0
  0
VERTEX
  5
19BD
  8
TOPPASTE
 10
1269.8000004000000445
 20
1294.7650000000001
 30
0.0
 42
1.0
  0
SEQEND
  5
19BE
  8
TOPPASTE
  0
POLYLINE
  5
2D9
  8
TOPSOLDER
 66
     1
 10
0.0
 20
0.0
 30
0.0
 40
1.003200939999999
 41
1.003200939999999
  0
VERTEX
  5
19BF
  8
TOPSOLDER
 10
1270.3999991999999111
 20
1294.7650000000001
 30
0.0
  0
VERTEX
  5
19C0
  8
TOPSOLDER
 10
1269.6000008000000889
 20
1294.7650000000001
 30
0.0
  0
SEQEND
  5
19C1
  8
TOPSOLDER
  0
POLYLINE
  5
2DA
  8
TOPSOLDER
 66
     1
 10
0.0
 20
0.0
 30
0.0
 70
     1
 40
0.5015992000000002
 41
0.5015992000000002
  0
VERTEX
  5
19C2
  8
TOPSOLDER
 10
1270.1491995999999745
 20
1294.7650000000001
 30
0.0
 42
1.0
  0
VERTEX
  5
19C3
  8
TOPSOLDER
 10
1270.6507988000000751
 20
1294.7650000000001
 30
0.0
 42
1.0
  0
SEQEND
  5
19C4
  8
TOPSOLDER
  0
POLYLINE
  5
2DB
  8
TOPSOLDER
 66
     1
 10
0.0
 20
0.0
 30
0.0
 70
     1
 40
0.5015992000000002
 41
0.5015992000000002
  0
VERTEX
  5
19C5
  8
TOPSOLDER
 10
1269.3492011999999249
 20
1294.7650000000001
 30
0.0
 42
1.0
  0
VERTEX
  5
19C6
  8
TOPSOLDER
 10
1269.8508004000000255
 20
1294.7650000000001
 30
0.0
 42
1.0
  0
SEQEND
  5
19C7
  8
TOPSOLDER
  0
POLYLINE
  5
2DC
  8
TOPLAYER
 66
     1
 10
0.0
 20
0.0
 30
0.0
 40
0.8000009399999999
 41
0.8000009399999999
  0
VERTEX
  5
19C8
  8
TOPLAYER
 10
1270.3999991999999111
 20
1294.7650000000001
 30
0.0
  0
VERTEX
  5
19C9
  8
TOPLAYER
 10
1269.6000008000000889
 20
1294.7650000000001
 30
0.0
  0
SEQEND
  5
19CA
  8
TOPLAYER
  0
POLYLINE
  5
2DD
  8
TOPLAYER
 66
     1
 10
0.0
 20
0.0
 30
0.0
 70
     1
 40
0.3999992
 41
0.3999992
  0
VERTEX
  5
19CB
  8
TOPLAYER
 10
1270.1999995999999555
 20
1294.7650000000001
 30
0.0
 42
1.0
  0
VERTEX
  5
19CC
  8
TOPLAYER
 10
1270.599998800000094
 20
1294.7650000000001
 30
0.0
 42
1.0
  0
SEQEND
  5
19CD
  8
TOPLAYER
  0
POLYLINE
  5
2DE
  8
TOPLAYER
 66
     1
 10
0.0
 20
0.0
 30
0.0
 70
     1
 40
0.3999992
 41
0.3999992
  0
VERTEX
  5
19CE
  8
TOPLAYER
 10
1269.400001199999906
 20
1294.7650000000001
 30
0.0
 42
1.0
  0
VERTEX
  5
19CF
  8
TOPLAYER
 10
1269.8000004000000445
 20
1294.7650000000001
 30
0.0
 42
1.0
  0
SEQEND
  5
19D0
  8
TOPLAYER
  0
POLYLINE
  5
2DF
  8
TOPPASTE
 66
     1
 10
0.0
 20
0.0
 30
0.0
 40
0.8000009399999999
 41
0.8000009399999999
  0
VERTEX
  5
19D1
  8
TOPPASTE
 10
1270.3999991999999111
 20
1293.4949999999998909
 30
0.0
  0
VERTEX
  5
19D2
  8
TOPPASTE
 10
1269.6000008000000889
 20
1293.4949999999998909
 30
0.0
  0
SEQEND
  5
19D3
  8
TOPPASTE
  0
POLYLINE
  5
2E0
  8
TOPPASTE
 66
     1
 10
0.0
 20
0.0
 30
0.0
 70
     1
 40
0.3999992
 41
0.3999992
  0
VERTEX
  5
19D4
  8
TOPPASTE
 10
1270.1999995999999555
 20
1293.4949999999998909
 30
0.0
 42
1.0
  0
VERTEX
  5
19D5
  8
TOPPASTE
 10
1270.599998800000094
 20
1293.4949999999998909
 30
0.0
 42
1.0
  0
SEQEND
  5
19D6
  8
TOPPASTE
  0
POLYLINE
  5
2E1
  8
TOPPASTE
 66
     1
 10
0.0
 20
0.0
 30
0.0
 70
     1
 40
0.3999992
 41
0.3999992
  0
VERTEX
  5
19D7
  8
TOPPASTE
 10
1269.400001199999906
 20
1293.4949999999998909
 30
0.0
 42
1.0
  0
VERTEX
  5
19D8
  8
TOPPASTE
 10
1269.8000004000000445
 20
1293.4949999999998909
 30
0.0
 42
1.0
  0
SEQEND
  5
19D9
  8
TOPPASTE
  0
POLYLINE
  5
2E2
  8
TOPSOLDER
 66
     1
 10
0.0
 20
0.0
 30
0.0
 40
1.003200939999999
 41
1.003200939999999
  0
VERTEX
  5
19DA
  8
TOPSOLDER
 10
1270.3999991999999111
 20
1293.4949999999998909
 30
0.0
  0
VERTEX
  5
19DB
  8
TOPSOLDER
 10
1269.6000008000000889
 20
1293.4949999999998909
 30
0.0
  0
SEQEND
  5
19DC
  8
TOPSOLDER
  0
POLYLINE
  5
2E3
  8
TOPSOLDER
 66
     1
 10
0.0
 20
0.0
 30
0.0
 70
     1
 40
0.5015992000000002
 41
0.5015992000000002
  0
VERTEX
  5
19DD
  8
TOPSOLDER
 10
1270.1491995999999745
 20
1293.4949999999998909
 30
0.0
 42
1.0
  0
VERTEX
  5
19DE
  8
TOPSOLDER
 10
1270.6507988000000751
 20
1293.4949999999998909
 30
0.0
 42
1.0
  0
SEQEND
  5
19DF
  8
TOPSOLDER
  0
POLYLINE
  5
2E4
  8
TOPSOLDER
 66
     1
 10
0.0
 20
0.0
 30
0.0
 70
     1
 40
0.5015992000000002
 41
0.5015992000000002
  0
VERTEX
  5
19E0
  8
TOPSOLDER
 10
1269.3492011999999249
 20
1293.4949999999998909
 30
0.0
 42
1.0
  0
VERTEX
  5
19E1
  8
TOPSOLDER
 10
1269.8508004000000255
 20
1293.4949999999998909
 30
0.0
 42
1.0
  0
SEQEND
  5
19E2
  8
TOPSOLDER
  0
POLYLINE
  5
2E5
  8
TOPLAYER
 66
     1
 10
0.0
 20
0.0
 30
0.0
 40
0.8000009399999999
 41
0.8000009399999999
  0
VERTEX
  5
19E3
  8
TOPLAYER
 10
1270.3999991999999111
 20
1293.4949999999998909
 30
0.0
  0
VERTEX
  5
19E4
  8
TOPLAYER
 10
1269.6000008000000889
 20
1293.4949999999998909
 30
0.0
  0
SEQEND
  5
19E5
  8
TOPLAYER
  0
POLYLINE
  5
2E6
  8
TOPLAYER
 66
     1
 10
0.0
 20
0.0
 30
0.0
 70
     1
 40
0.3999992
 41
0.3999992
  0
VERTEX
  5
19E6
  8
TOPLAYER
 10
1270.1999995999999555
 20
1293.4949999999998909
 30
0.0
 42
1.0
  0
VERTEX
  5
19E7
  8
TOPLAYER
 10
1270.599998800000094
 20
1293.4949999999998909
 30
0.0
 42
1.0
  0
SEQEND
  5
19E8
  8
TOPLAYER
  0
POLYLINE
  5
2E7
  8
TOPLAYER
 66
     1
 10
0.0
 20
0.0
 30
0.0
 70
     1
 40
0.3999992
 41
0.3999992
  0
VERTEX
  5
19E9
  8
TOPLAYER
 10
1269.400001199999906
 20
1293.4949999999998909
 30
0.0
 42
1.0
  0
VERTEX
  5
19EA
  8
TOPLAYER
 10
1269.8000004000000445
 20
1293.4949999999998909
 30
0.0
 42
1.0
  0
SEQEND
  5
19EB
  8
TOPLAYER
  0
POLYLINE
  5
2E8
  8
TOPPASTE
 66
     1
 10
0.0
 20
0.0
 30
0.0
 40
0.8000009399999999
 41
0.8000009399999999
  0
VERTEX
  5
19EC
  8
TOPPASTE
 10
1270.3999991999999111
 20
1292.2249999999999091
 30
0.0
  0
VERTEX
  5
19ED
  8
TOPPASTE
 10
1269.6000008000000889
 20
1292.2249999999999091
 30
0.0
  0
SEQEND
  5
19EE
  8
TOPPASTE
  0
POLYLINE
  5
2E9
  8
TOPPASTE
 66
     1
 10
0.0
 20
0.0
 30
0.0
 70
     1
 40
0.3999992
 41
0.3999992
  0
VERTEX
  5
19EF
  8
TOPPASTE
 10
1270.1999995999999555
 20
1292.2249999999999091
 30
0.0
 42
1.0
  0
VERTEX
  5
19F0
  8
TOPPASTE
 10
1270.599998800000094
 20
1292.2249999999999091
 30
0.0
 42
1.0
  0
SEQEND
  5
19F1
  8
TOPPASTE
  0
POLYLINE
  5
2EA
  8
TOPPASTE
 66
     1
 10
0.0
 20
0.0
 30
0.0
 70
     1
 40
0.3999992
 41
0.3999992
  0
VERTEX
  5
19F2
  8
TOPPASTE
 10
1269.400001199999906
 20
1292.2249999999999091
 30
0.0
 42
1.0
  0
VERTEX
  5
19F3
  8
TOPPASTE
 10
1269.8000004000000445
 20
1292.2249999999999091
 30
0.0
 42
1.0
  0
SEQEND
  5
19F4
  8
TOPPASTE
  0
POLYLINE
  5
2EB
  8
TOPSOLDER
 66
     1
 10
0.0
 20
0.0
 30
0.0
 40
1.003200939999999
 41
1.003200939999999
  0
VERTEX
  5
19F5
  8
TOPSOLDER
 10
1270.3999991999999111
 20
1292.2249999999999091
 30
0.0
  0
VERTEX
  5
19F6
  8
TOPSOLDER
 10
1269.6000008000000889
 20
1292.2249999999999091
 30
0.0
  0
SEQEND
  5
19F7
  8
TOPSOLDER
  0
POLYLINE
  5
2EC
  8
TOPSOLDER
 66
     1
 10
0.0
 20
0.0
 30
0.0
 70
     1
 40
0.5015992000000002
 41
0.5015992000000002
  0
VERTEX
  5
19F8
  8
TOPSOLDER
 10
1270.1491995999999745
 20
1292.2249999999999091
 30
0.0
 42
1.0
  0
VERTEX
  5
19F9
  8
TOPSOLDER
 10
1270.6507988000000751
 20
1292.2249999999999091
 30
0.0
 42
1.0
  0
SEQEND
  5
19FA
  8
TOPSOLDER
  0
POLYLINE
  5
2ED
  8
TOPSOLDER
 66
     1
 10
0.0
 20
0.0
 30
0.0
 70
     1
 40
0.5015992000000002
 41
0.5015992000000002
  0
VERTEX
  5
19FB
  8
TOPSOLDER
 10
1269.3492011999999249
 20
1292.2249999999999091
 30
0.0
 42
1.0
  0
VERTEX
  5
19FC
  8
TOPSOLDER
 10
1269.8508004000000255
 20
1292.2249999999999091
 30
0.0
 42
1.0
  0
SEQEND
  5
19FD
  8
TOPSOLDER
  0
POLYLINE
  5
2EE
  8
TOPLAYER
 66
     1
 10
0.0
 20
0.0
 30
0.0
 40
0.8000009399999999
 41
0.8000009399999999
  0
VERTEX
  5
19FE
  8
TOPLAYER
 10
1270.3999991999999111
 20
1292.2249999999999091
 30
0.0
  0
VERTEX
  5
19FF
  8
TOPLAYER
 10
1269.6000008000000889
 20
1292.2249999999999091
 30
0.0
  0
SEQEND
  5
1A00
  8
TOPLAYER
  0
POLYLINE
  5
2EF
  8
TOPLAYER
 66
     1
 10
0.0
 20
0.0
 30
0.0
 70
     1
 40
0.3999992
 41
0.3999992
  0
VERTEX
  5
1A01
  8
TOPLAYER
 10
1270.1999995999999555
 20
1292.2249999999999091
 30
0.0
 42
1.0
  0
VERTEX
  5
1A02
  8
TOPLAYER
 10
1270.599998800000094
 20
1292.2249999999999091
 30
0.0
 42
1.0
  0
SEQEND
  5
1A03
  8
TOPLAYER
  0
POLYLINE
  5
2F0
  8
TOPLAYER
 66
     1
 10
0.0
 20
0.0
 30
0.0
 70
     1
 40
0.3999992
 41
0.3999992
  0
VERTEX
  5
1A04
  8
TOPLAYER
 10
1269.400001199999906
 20
1292.2249999999999091
 30
0.0
 42
1.0
  0
VERTEX
  5
1A05
  8
TOPLAYER
 10
1269.8000004000000445
 20
1292.2249999999999091
 30
0.0
 42
1.0
  0
SEQEND
  5
1A06
  8
TOPLAYER
  0
TEXT
  5
2F1
  8
TOPOVERLAY
 10
1271.6782385823748882
 20
1273.9229616405830257
 30
0.0
 40
1.0
  1
NS2009
  0
TEXT
  5
2F2
  8
TOPOVERLAY
 10
1295.1274381490059113
 20
1281.0335088434310364
 30
0.0
 40
1.0
  1
SLOT
  0
TEXT
  5
2F3
  8
TOPOVERLAY
 10
1295.1205999999999676
 20
1283.0078505399999358
 30
0.0
 40
1.0
  1
CARD
  0
TEXT
  5
2F4
  8
TOPOVERLAY
 10
1295.1137616526550573
 20
1284.7699002905610541
 30
0.0
 40
1.0
  1
TF
  0
ENDSEC
  0
EOF
