  0
SECTION
  2
HEADER
  9
$ACADVER
  1
AC1015
  9
$ACADMAINTVER
 70
     6
  9
$DWGCODEPAGE
  3
ANSI_936
  9
$INSBASE
 10
0.0
 20
0.0
 30
0.0
  9
$EXTMIN
 10
1.000000000000000E+20
 20
1.000000000000000E+20
 30
1.000000000000000E+20
  9
$EXTMAX
 10
-1.000000000000000E+20
 20
-1.000000000000000E+20
 30
-1.000000000000000E+20
  9
$LIMMIN
 10
-47.0535
 20
-20.7645
  9
$LIMMAX
 10
245.1735
 20
172.4025
  9
$ORTHOMODE
 70
     0
  9
$REGENMODE
 70
     1
  9
$FILLMODE
 70
     1
  9
$QTEXTMODE
 70
     0
  9
$MIRRTEXT
 70
     1
  9
$LTSCALE
 40
1.0
  9
$ATTMODE
 70
     1
  9
$TEXTSIZE
 40
2.5
  9
$TRACEWID
 40
1.0
  9
$TEXTSTYLE
  7
Standard
  9
$CLAYER
  8
0
  9
$CELTYPE
  6
ByLayer
  9
$CECOLOR
 62
   256
  9
$CELTSCALE
 40
1.0
  9
$DISPSILH
 70
     0
  9
$DIMSCALE
 40
1.0
  9
$DIMASZ
 40
2.5
  9
$DIMEXO
 40
0.625
  9
$DIMDLI
 40
3.75
  9
$DIMRND
 40
0.0
  9
$DIMDLE
 40
0.0
  9
$DIMEXE
 40
1.25
  9
$DIMTP
 40
0.0
  9
$DIMTM
 40
0.0
  9
$DIMTXT
 40
2.5
  9
$DIMCEN
 40
2.5
  9
$DIMTSZ
 40
0.0
  9
$DIMTOL
 70
     0
  9
$DIMLIM
 70
     0
  9
$DIMTIH
 70
     0
  9
$DIMTOH
 70
     0
  9
$DIMSE1
 70
     0
  9
$DIMSE2
 70
     0
  9
$DIMTAD
 70
     1
  9
$DIMZIN
 70
     8
  9
$DIMBLK
  1

  9
$DIMASO
 70
     1
  9
$DIMSHO
 70
     1
  9
$DIMPOST
  1

  9
$DIMAPOST
  1

  9
$DIMALT
 70
     0
  9
$DIMALTD
 70
     3
  9
$DIMALTF
 40
0.03937007874016
  9
$DIMLFAC
 40
1.0
  9
$DIMTOFL
 70
     1
  9
$DIMTVP
 40
0.0
  9
$DIMTIX
 70
     0
  9
$DIMSOXD
 70
     0
  9
$DIMSAH
 70
     0
  9
$DIMBLK1
  1

  9
$DIMBLK2
  1

  9
$DIMSTYLE
  2
ISO-25
  9
$DIMCLRD
 70
     0
  9
$DIMCLRE
 70
     0
  9
$DIMCLRT
 70
     0
  9
$DIMTFAC
 40
1.0
  9
$DIMGAP
 40
0.625
  9
$DIMJUST
 70
     0
  9
$DIMSD1
 70
     0
  9
$DIMSD2
 70
     0
  9
$DIMTOLJ
 70
     0
  9
$DIMTZIN
 70
     8
  9
$DIMALTZ
 70
     0
  9
$DIMALTTZ
 70
     0
  9
$DIMUPT
 70
     0
  9
$DIMDEC
 70
     2
  9
$DIMTDEC
 70
     2
  9
$DIMALTU
 70
     2
  9
$DIMALTTD
 70
     3
  9
$DIMTXSTY
  7
Standard
  9
$DIMAUNIT
 70
     0
  9
$DIMADEC
 70
     0
  9
$DIMALTRND
 40
0.0
  9
$DIMAZIN
 70
     0
  9
$DIMDSEP
 70
    44
  9
$DIMATFIT
 70
     3
  9
$DIMFRAC
 70
     0
  9
$DIMLDRBLK
  1

  9
$DIMLUNIT
 70
     2
  9
$DIMLWD
 70
    -2
  9
$DIMLWE
 70
    -2
  9
$DIMTMOVE
 70
     0
  9
$LUNITS
 70
     2
  9
$LUPREC
 70
     4
  9
$SKETCHINC
 40
1.0
  9
$FILLETRAD
 40
10.0
  9
$AUNITS
 70
     0
  9
$AUPREC
 70
     0
  9
$MENU
  1
.
  9
$ELEVATION
 40
0.0
  9
$PELEVATION
 40
0.0
  9
$THICKNESS
 40
0.0
  9
$LIMCHECK
 70
     0
  9
$CHAMFERA
 40
0.0
  9
$CHAMFERB
 40
0.0
  9
$CHAMFERC
 40
0.0
  9
$CHAMFERD
 40
0.0
  9
$SKPOLY
 70
     0
  9
$TDCREATE
 40
2458613.678162141
  9
$TDUCREATE
 40
2458613.344828808
  9
$TDUPDATE
 40
2458613.678164653
  9
$TDUUPDATE
 40
2458613.34483132
  9
$TDINDWG
 40
0.0000000116
  9
$TDUSRTIMER
 40
0.0000000116
  9
$USRTIMER
 70
     1
  9
$ANGBASE
 50
0.0
  9
$ANGDIR
 70
     0
  9
$PDMODE
 70
     0
  9
$PDSIZE
 40
0.0
  9
$PLINEWID
 40
0.0
  9
$SPLFRAME
 70
     0
  9
$SPLINETYPE
 70
     6
  9
$SPLINESEGS
 70
     8
  9
$HANDSEED
  5
4A9
  9
$SURFTAB1
 70
     6
  9
$SURFTAB2
 70
     6
  9
$SURFTYPE
 70
     6
  9
$SURFU
 70
     6
  9
$SURFV
 70
     6
  9
$UCSBASE
  2

  9
$UCSNAME
  2

  9
$UCSORG
 10
0.0
 20
0.0
 30
0.0
  9
$UCSXDIR
 10
1.0
 20
0.0
 30
0.0
  9
$UCSYDIR
 10
0.0
 20
1.0
 30
0.0
  9
$UCSORTHOREF
  2

  9
$UCSORTHOVIEW
 70
     0
  9
$UCSORGTOP
 10
0.0
 20
0.0
 30
0.0
  9
$UCSORGBOTTOM
 10
0.0
 20
0.0
 30
0.0
  9
$UCSORGLEFT
 10
0.0
 20
0.0
 30
0.0
  9
$UCSORGRIGHT
 10
0.0
 20
0.0
 30
0.0
  9
$UCSORGFRONT
 10
0.0
 20
0.0
 30
0.0
  9
$UCSORGBACK
 10
0.0
 20
0.0
 30
0.0
  9
$PUCSBASE
  2

  9
$PUCSNAME
  2

  9
$PUCSORG
 10
0.0
 20
0.0
 30
0.0
  9
$PUCSXDIR
 10
1.0
 20
0.0
 30
0.0
  9
$PUCSYDIR
 10
0.0
 20
1.0
 30
0.0
  9
$PUCSORTHOREF
  2

  9
$PUCSORTHOVIEW
 70
     0
  9
$PUCSORGTOP
 10
0.0
 20
0.0
 30
0.0
  9
$PUCSORGBOTTOM
 10
0.0
 20
0.0
 30
0.0
  9
$PUCSORGLEFT
 10
0.0
 20
0.0
 30
0.0
  9
$PUCSORGRIGHT
 10
0.0
 20
0.0
 30
0.0
  9
$PUCSORGFRONT
 10
0.0
 20
0.0
 30
0.0
  9
$PUCSORGBACK
 10
0.0
 20
0.0
 30
0.0
  9
$USERI1
 70
     0
  9
$USERI2
 70
     0
  9
$USERI3
 70
     0
  9
$USERI4
 70
     0
  9
$USERI5
 70
     0
  9
$USERR1
 40
0.0
  9
$USERR2
 40
0.0
  9
$USERR3
 40
0.0
  9
$USERR4
 40
0.0
  9
$USERR5
 40
0.0
  9
$WORLDVIEW
 70
     1
  9
$SHADEDGE
 70
     3
  9
$SHADEDIF
 70
    70
  9
$TILEMODE
 70
     1
  9
$MAXACTVP
 70
    64
  9
$PINSBASE
 10
0.0
 20
0.0
 30
0.0
  9
$PLIMCHECK
 70
     0
  9
$PEXTMIN
 10
1.000000000000000E+20
 20
1.000000000000000E+20
 30
1.000000000000000E+20
  9
$PEXTMAX
 10
-1.000000000000000E+20
 20
-1.000000000000000E+20
 30
-1.000000000000000E+20
  9
$PLIMMIN
 10
0.0
 20
0.0
  9
$PLIMMAX
 10
420.0
 20
297.0
  9
$UNITMODE
 70
     0
  9
$VISRETAIN
 70
     1
  9
$PLINEGEN
 70
     0
  9
$PSLTSCALE
 70
     1
  9
$TREEDEPTH
 70
  3020
  9
$CMLSTYLE
  2
Standard
  9
$CMLJUST
 70
     0
  9
$CMLSCALE
 40
20.0
  9
$PROXYGRAPHICS
 70
     1
  9
$MEASUREMENT
 70
     1
  9
$CELWEIGHT
370
    -1
  9
$ENDCAPS
280
     0
  9
$JOINSTYLE
280
     0
  9
$LWDISPLAY
290
     0
  9
$INSUNITS
 70
     4
  9
$HYPERLINKBASE
  1

  9
$STYLESHEET
  1

  9
$XEDIT
290
     1
  9
$CEPSNTYPE
380
     0
  9
$PSTYLEMODE
290
     1
  9
$FINGERPRINTGUID
  2
{4D45BA9E-D6B0-4281-9BD5-D46ADAC1D6CC}
  9
$VERSIONGUID
  2
{FAEB1C32-E019-11D5-929B-00C0DF256EC4}
  9
$EXTNAMES
290
     1
  9
$PSVPSCALE
 40
0.0
  9
$OLESTARTUP
290
     0
  0
ENDSEC
  0
SECTION
  2
CLASSES
  0
CLASS
  1
ACDBDICTIONARYWDFLT
  2
AcDbDictionaryWithDefault
  3
ObjectDBX Classes
 90
        0
280
     0
281
     0
  0
CLASS
  1
VISUALSTYLE
  2
AcDbVisualStyle
  3
ObjectDBX Classes
 90
     4095
280
     0
281
     0
  0
CLASS
  1
MATERIAL
  2
AcDbMaterial
  3
ObjectDBX Classes
 90
     1153
280
     0
281
     0
  0
CLASS
  1
SCALE
  2
AcDbScale
  3
ObjectDBX Classes
 90
     1153
280
     0
281
     0
  0
CLASS
  1
TABLESTYLE
  2
AcDbTableStyle
  3
ObjectDBX Classes
 90
     4095
280
     0
281
     0
  0
CLASS
  1
MLEADERSTYLE
  2
AcDbMLeaderStyle
  3
ACDB_MLEADERSTYLE_CLASS
 90
     4095
280
     0
281
     0
  0
CLASS
  1
SUN
  2
AcDbSun
  3
SCENEOE
 90
     1153
280
     0
281
     0
  0
CLASS
  1
DICTIONARYVAR
  2
AcDbDictionaryVar
  3
ObjectDBX Classes
 90
        0
280
     0
281
     0
  0
CLASS
  1
ACDBPLACEHOLDER
  2
AcDbPlaceHolder
  3
ObjectDBX Classes
 90
        0
280
     0
281
     0
  0
CLASS
  1
LAYOUT
  2
AcDbLayout
  3
ObjectDBX Classes
 90
        0
280
     0
281
     0
  0
ENDSEC
  0
SECTION
  2
TABLES
  0
TABLE
  2
VPORT
  5
8
102
{ACAD_XDICTIONARY
360
46C
102
}
330
0
100
AcDbSymbolTable
 70
     1
  0
VPORT
  5
29
330
8
100
AcDbSymbolTableRecord
100
AcDbViewportTableRecord
  2
*Active
 70
     0
 10
0.0
 20
0.0
 11
1.0
 21
1.0
 12
344.1869158878504
 22
148.5
 13
0.0
 23
0.0
 14
10.0
 24
10.0
 15
10.0
 25
10.0
 16
0.0
 26
0.0
 36
1.0
 17
0.0
 27
0.0
 37
0.0
 40
297.0
 41
1.972972972850329
 42
50.0
 43
0.0
 44
0.0
 50
0.0
 51
0.0
 71
     0
 72
   100
 73
     1
 74
     3
 75
     0
 76
     0
 77
     0
 78
     0
281
     0
 65
     1
110
0.0
120
0.0
130
0.0
111
1.0
121
0.0
131
0.0
112
0.0
122
1.0
132
0.0
 79
     0
146
0.0
  0
ENDTAB
  0
TABLE
  2
LTYPE
  5
5
330
0
100
AcDbSymbolTable
 70
     1
  0
LTYPE
  5
14
330
5
100
AcDbSymbolTableRecord
100
AcDbLinetypeTableRecord
  2
ByBlock
 70
     0
  3

 72
    65
 73
     0
 40
0.0
  0
LTYPE
  5
15
330
5
100
AcDbSymbolTableRecord
100
AcDbLinetypeTableRecord
  2
ByLayer
 70
     0
  3

 72
    65
 73
     0
 40
0.0
  0
LTYPE
  5
16
330
5
100
AcDbSymbolTableRecord
100
AcDbLinetypeTableRecord
  2
Continuous
 70
     0
  3
Solid line
 72
    65
 73
     0
 40
0.0
  0
ENDTAB
  0
TABLE
  2
LAYER
  5
2
330
0
100
AcDbSymbolTable
 70
     3
  0
LAYER
  5
10
330
2
100
AcDbSymbolTableRecord
100
AcDbLayerTableRecord
  2
0
 70
     0
 62
     7
  6
Continuous
370
    -3
390
F
  0
LAYER
  5
6E
330
2
100
AcDbSymbolTableRecord
100
AcDbLayerTableRecord
  2
KeepOutLayer
 70
     0
 62
     6
  6
Continuous
370
    -3
390
F
  0
LAYER
  5
6F
330
2
100
AcDbSymbolTableRecord
100
AcDbLayerTableRecord
  2
TopPaste
 70
     0
 62
     8
  6
Continuous
370
    -3
390
F
  0
ENDTAB
  0
TABLE
  2
STYLE
  5
3
330
0
100
AcDbSymbolTable
 70
     1
  0
STYLE
  5
11
330
3
100
AcDbSymbolTableRecord
100
AcDbTextStyleTableRecord
  2
Standard
 70
     0
 40
0.0
 41
1.0
 50
0.0
 71
     0
 42
2.5
  3
txt
  4

  0
ENDTAB
  0
TABLE
  2
VIEW
  5
6
330
0
100
AcDbSymbolTable
 70
     0
  0
ENDTAB
  0
TABLE
  2
UCS
  5
7
330
0
100
AcDbSymbolTable
 70
     0
  0
ENDTAB
  0
TABLE
  2
APPID
  5
9
330
0
100
AcDbSymbolTable
 70
     2
  0
APPID
  5
12
330
9
100
AcDbSymbolTableRecord
100
AcDbRegAppTableRecord
  2
ACAD
 70
     0
  0
APPID
  5
4A6
330
9
100
AcDbSymbolTableRecord
100
AcDbRegAppTableRecord
  2
ACAD_MLEADERVER
 70
     0
  0
ENDTAB
  0
TABLE
  2
DIMSTYLE
  5
A
330
0
100
AcDbSymbolTable
 70
     1
100
AcDbDimStyleTable
  0
DIMSTYLE
105
27
330
A
100
AcDbSymbolTableRecord
100
AcDbDimStyleTableRecord
  2
ISO-25
 70
     0
 41
2.5
 42
0.625
 43
3.75
 44
1.25
 73
     0
 74
     0
 77
     1
 78
     8
140
2.5
141
2.5
143
0.03937007874016
147
0.625
171
     3
172
     1
178
     0
271
     2
272
     2
274
     3
278
    44
283
     0
284
     8
340
11
  0
ENDTAB
  0
TABLE
  2
BLOCK_RECORD
  5
1
330
0
100
AcDbSymbolTable
 70
   113
  0
BLOCK_RECORD
  5
1F
330
1
100
AcDbSymbolTableRecord
100
AcDbBlockTableRecord
  2
*Model_Space
340
22
  0
BLOCK_RECORD
  5
1B
330
1
100
AcDbSymbolTableRecord
100
AcDbBlockTableRecord
  2
*Paper_Space
340
1E
  0
BLOCK_RECORD
  5
23
330
1
100
AcDbSymbolTableRecord
100
AcDbBlockTableRecord
  2
*Paper_Space0
340
26
  0
BLOCK_RECORD
  5
BB
330
1
100
AcDbSymbolTableRecord
100
AcDbBlockTableRecord
  2
C0805_M_1
340
0
102
{BLKREFS
331
C0
102
}
  0
BLOCK_RECORD
  5
C1
330
1
100
AcDbSymbolTableRecord
100
AcDbBlockTableRecord
  2
C0402_M_2
340
0
102
{BLKREFS
331
C6
102
}
  0
BLOCK_RECORD
  5
C7
330
1
100
AcDbSymbolTableRecord
100
AcDbBlockTableRecord
  2
SOT_23_3_3
340
0
102
{BLKREFS
331
CD
102
}
  0
BLOCK_RECORD
  5
CE
330
1
100
AcDbSymbolTableRecord
100
AcDbBlockTableRecord
  2
R0402_M_4
340
0
102
{BLKREFS
331
D3
102
}
  0
BLOCK_RECORD
  5
D4
330
1
100
AcDbSymbolTableRecord
100
AcDbBlockTableRecord
  2
C0402_M_5
340
0
102
{BLKREFS
331
D9
102
}
  0
BLOCK_RECORD
  5
DA
330
1
100
AcDbSymbolTableRecord
100
AcDbBlockTableRecord
  2
SOT23_5___6
340
0
102
{BLKREFS
331
E2
102
}
  0
BLOCK_RECORD
  5
E3
330
1
100
AcDbSymbolTableRecord
100
AcDbBlockTableRecord
  2
R0402_M_7
340
0
102
{BLKREFS
331
E8
102
}
  0
BLOCK_RECORD
  5
E9
330
1
100
AcDbSymbolTableRecord
100
AcDbBlockTableRecord
  2
R0402_M_8
340
0
102
{BLKREFS
331
EE
102
}
  0
BLOCK_RECORD
  5
EF
330
1
100
AcDbSymbolTableRecord
100
AcDbBlockTableRecord
  2
C0402_M_9
340
0
102
{BLKREFS
331
F4
102
}
  0
BLOCK_RECORD
  5
F5
330
1
100
AcDbSymbolTableRecord
100
AcDbBlockTableRecord
  2
C0402_M_10
340
0
102
{BLKREFS
331
FA
102
}
  0
BLOCK_RECORD
  5
FB
330
1
100
AcDbSymbolTableRecord
100
AcDbBlockTableRecord
  2
R0402_M_11
340
0
102
{BLKREFS
331
100
102
}
  0
BLOCK_RECORD
  5
101
330
1
100
AcDbSymbolTableRecord
100
AcDbBlockTableRecord
  2
R0402_M_12
340
0
102
{BLKREFS
331
106
102
}
  0
BLOCK_RECORD
  5
107
330
1
100
AcDbSymbolTableRecord
100
AcDbBlockTableRecord
  2
0603_LED_13
340
0
102
{BLKREFS
331
10C
102
}
  0
BLOCK_RECORD
  5
10D
330
1
100
AcDbSymbolTableRecord
100
AcDbBlockTableRecord
  2
0603_LED_14
340
0
102
{BLKREFS
331
112
102
}
  0
BLOCK_RECORD
  5
113
330
1
100
AcDbSymbolTableRecord
100
AcDbBlockTableRecord
  2
K210______15
340
0
102
{BLKREFS
331
162
102
}
  0
BLOCK_RECORD
  5
163
330
1
100
AcDbSymbolTableRecord
100
AcDbBlockTableRecord
  2
1_25MM_SMT_2P_16
340
0
102
{BLKREFS
331
16A
102
}
  0
BLOCK_RECORD
  5
16B
330
1
100
AcDbSymbolTableRecord
100
AcDbBlockTableRecord
  2
SOD_882_17
340
0
102
{BLKREFS
331
170
102
}
  0
BLOCK_RECORD
  5
171
330
1
100
AcDbSymbolTableRecord
100
AcDbBlockTableRecord
  2
SOD_882_18
340
0
102
{BLKREFS
331
176
102
}
  0
BLOCK_RECORD
  5
177
330
1
100
AcDbSymbolTableRecord
100
AcDbBlockTableRecord
  2
SOD_882_19
340
0
102
{BLKREFS
331
17C
102
}
  0
BLOCK_RECORD
  5
17D
330
1
100
AcDbSymbolTableRecord
100
AcDbBlockTableRecord
  2
SOD_882_20
340
0
102
{BLKREFS
331
182
102
}
  0
BLOCK_RECORD
  5
183
330
1
100
AcDbSymbolTableRecord
100
AcDbBlockTableRecord
  2
TSSOP_20_21
340
0
102
{BLKREFS
331
19A
102
}
  0
BLOCK_RECORD
  5
19B
330
1
100
AcDbSymbolTableRecord
100
AcDbBlockTableRecord
  2
R0402_M_22
340
0
102
{BLKREFS
331
1A0
102
}
  0
BLOCK_RECORD
  5
1A1
330
1
100
AcDbSymbolTableRecord
100
AcDbBlockTableRecord
  2
R0402_M_23
340
0
102
{BLKREFS
331
1A6
102
}
  0
BLOCK_RECORD
  5
1A7
330
1
100
AcDbSymbolTableRecord
100
AcDbBlockTableRecord
  2
R0402_M_24
340
0
102
{BLKREFS
331
1AC
102
}
  0
BLOCK_RECORD
  5
1AD
330
1
100
AcDbSymbolTableRecord
100
AcDbBlockTableRecord
  2
R0402_M_25
340
0
102
{BLKREFS
331
1B2
102
}
  0
BLOCK_RECORD
  5
1B3
330
1
100
AcDbSymbolTableRecord
100
AcDbBlockTableRecord
  2
R0402_M_26
340
0
102
{BLKREFS
331
1B8
102
}
  0
BLOCK_RECORD
  5
1B9
330
1
100
AcDbSymbolTableRecord
100
AcDbBlockTableRecord
  2
R0402_M_27
340
0
102
{BLKREFS
331
1BE
102
}
  0
BLOCK_RECORD
  5
1BF
330
1
100
AcDbSymbolTableRecord
100
AcDbBlockTableRecord
  2
0603_LED_28
340
0
102
{BLKREFS
331
1C4
102
}
  0
BLOCK_RECORD
  5
1C5
330
1
100
AcDbSymbolTableRecord
100
AcDbBlockTableRecord
  2
0603_LED_29
340
0
102
{BLKREFS
331
1CA
102
}
  0
BLOCK_RECORD
  5
1CB
330
1
100
AcDbSymbolTableRecord
100
AcDbBlockTableRecord
  2
C0402_M_30
340
0
102
{BLKREFS
331
1D0
102
}
  0
BLOCK_RECORD
  5
1D1
330
1
100
AcDbSymbolTableRecord
100
AcDbBlockTableRecord
  2
C0402_M_31
340
0
102
{BLKREFS
331
1D6
102
}
  0
BLOCK_RECORD
  5
1D7
330
1
100
AcDbSymbolTableRecord
100
AcDbBlockTableRecord
  2
C0402_M_32
340
0
102
{BLKREFS
331
1DC
102
}
  0
BLOCK_RECORD
  5
1DD
330
1
100
AcDbSymbolTableRecord
100
AcDbBlockTableRecord
  2
C0402_M_33
340
0
102
{BLKREFS
331
1E2
102
}
  0
BLOCK_RECORD
  5
1E3
330
1
100
AcDbSymbolTableRecord
100
AcDbBlockTableRecord
  2
C0402_M_34
340
0
102
{BLKREFS
331
1E8
102
}
  0
BLOCK_RECORD
  5
1E9
330
1
100
AcDbSymbolTableRecord
100
AcDbBlockTableRecord
  2
C0805_M_35
340
0
102
{BLKREFS
331
1EE
102
}
  0
BLOCK_RECORD
  5
1EF
330
1
100
AcDbSymbolTableRecord
100
AcDbBlockTableRecord
  2
SOT23_6___36
340
0
102
{BLKREFS
331
1F8
102
}
  0
BLOCK_RECORD
  5
1F9
330
1
100
AcDbSymbolTableRecord
100
AcDbBlockTableRecord
  2
R0402_M_37
340
0
102
{BLKREFS
331
1FE
102
}
  0
BLOCK_RECORD
  5
1FF
330
1
100
AcDbSymbolTableRecord
100
AcDbBlockTableRecord
  2
R0402_M_38
340
0
102
{BLKREFS
331
204
102
}
  0
BLOCK_RECORD
  5
205
330
1
100
AcDbSymbolTableRecord
100
AcDbBlockTableRecord
  2
R0402_M_39
340
0
102
{BLKREFS
331
20A
102
}
  0
BLOCK_RECORD
  5
20B
330
1
100
AcDbSymbolTableRecord
100
AcDbBlockTableRecord
  2
R0402_M_40
340
0
102
{BLKREFS
331
210
102
}
  0
BLOCK_RECORD
  5
211
330
1
100
AcDbSymbolTableRecord
100
AcDbBlockTableRecord
  2
R0402_M_41
340
0
102
{BLKREFS
331
216
102
}
  0
BLOCK_RECORD
  5
217
330
1
100
AcDbSymbolTableRecord
100
AcDbBlockTableRecord
  2
R0402_M_42
340
0
102
{BLKREFS
331
21C
102
}
  0
BLOCK_RECORD
  5
21D
330
1
100
AcDbSymbolTableRecord
100
AcDbBlockTableRecord
  2
NR3015_43
340
0
102
{BLKREFS
331
222
102
}
  0
BLOCK_RECORD
  5
223
330
1
100
AcDbSymbolTableRecord
100
AcDbBlockTableRecord
  2
SOD123_FL_44
340
0
102
{BLKREFS
331
228
102
}
  0
BLOCK_RECORD
  5
229
330
1
100
AcDbSymbolTableRecord
100
AcDbBlockTableRecord
  2
SOD123_FL_45
340
0
102
{BLKREFS
331
22E
102
}
  0
BLOCK_RECORD
  5
22F
330
1
100
AcDbSymbolTableRecord
100
AcDbBlockTableRecord
  2
C0402_M_46
340
0
102
{BLKREFS
331
234
102
}
  0
BLOCK_RECORD
  5
235
330
1
100
AcDbSymbolTableRecord
100
AcDbBlockTableRecord
  2
C0402_M_47
340
0
102
{BLKREFS
331
23A
102
}
  0
BLOCK_RECORD
  5
23B
330
1
100
AcDbSymbolTableRecord
100
AcDbBlockTableRecord
  2
C0402_M_48
340
0
102
{BLKREFS
331
240
102
}
  0
BLOCK_RECORD
  5
241
330
1
100
AcDbSymbolTableRecord
100
AcDbBlockTableRecord
  2
R0402_M_49
340
0
102
{BLKREFS
331
246
102
}
  0
BLOCK_RECORD
  5
247
330
1
100
AcDbSymbolTableRecord
100
AcDbBlockTableRecord
  2
R0402_M_50
340
0
102
{BLKREFS
331
24C
102
}
  0
BLOCK_RECORD
  5
24D
330
1
100
AcDbSymbolTableRecord
100
AcDbBlockTableRecord
  2
R0603_M_51
340
0
102
{BLKREFS
331
252
102
}
  0
BLOCK_RECORD
  5
253
330
1
100
AcDbSymbolTableRecord
100
AcDbBlockTableRecord
  2
R0402_M_52
340
0
102
{BLKREFS
331
258
102
}
  0
BLOCK_RECORD
  5
259
330
1
100
AcDbSymbolTableRecord
100
AcDbBlockTableRecord
  2
R0402_M_53
340
0
102
{BLKREFS
331
25E
102
}
  0
BLOCK_RECORD
  5
25F
330
1
100
AcDbSymbolTableRecord
100
AcDbBlockTableRecord
  2
R0402_M_54
340
0
102
{BLKREFS
331
264
102
}
  0
BLOCK_RECORD
  5
265
330
1
100
AcDbSymbolTableRecord
100
AcDbBlockTableRecord
  2
R0402_M_55
340
0
102
{BLKREFS
331
26A
102
}
  0
BLOCK_RECORD
  5
26B
330
1
100
AcDbSymbolTableRecord
100
AcDbBlockTableRecord
  2
0603_LED_56
340
0
102
{BLKREFS
331
270
102
}
  0
BLOCK_RECORD
  5
271
330
1
100
AcDbSymbolTableRecord
100
AcDbBlockTableRecord
  2
DC_050_57
340
0
102
{BLKREFS
331
278
102
}
  0
BLOCK_RECORD
  5
279
330
1
100
AcDbSymbolTableRecord
100
AcDbBlockTableRecord
  2
SOT23_5___58
340
0
102
{BLKREFS
331
281
102
}
  0
BLOCK_RECORD
  5
282
330
1
100
AcDbSymbolTableRecord
100
AcDbBlockTableRecord
  2
R0402_M_59
340
0
102
{BLKREFS
331
287
102
}
  0
BLOCK_RECORD
  5
288
330
1
100
AcDbSymbolTableRecord
100
AcDbBlockTableRecord
  2
R0402_M_60
340
0
102
{BLKREFS
331
28D
102
}
  0
BLOCK_RECORD
  5
28E
330
1
100
AcDbSymbolTableRecord
100
AcDbBlockTableRecord
  2
SOT_23_3_61
340
0
102
{BLKREFS
331
294
102
}
  0
BLOCK_RECORD
  5
295
330
1
100
AcDbSymbolTableRecord
100
AcDbBlockTableRecord
  2
SOD123_FL_62
340
0
102
{BLKREFS
331
29A
102
}
  0
BLOCK_RECORD
  5
29B
330
1
100
AcDbSymbolTableRecord
100
AcDbBlockTableRecord
  2
C0402_M_63
340
0
102
{BLKREFS
331
2A0
102
}
  0
BLOCK_RECORD
  5
2A1
330
1
100
AcDbSymbolTableRecord
100
AcDbBlockTableRecord
  2
C0402_M_64
340
0
102
{BLKREFS
331
2A6
102
}
  0
BLOCK_RECORD
  5
2A7
330
1
100
AcDbSymbolTableRecord
100
AcDbBlockTableRecord
  2
C0603_M_65
340
0
102
{BLKREFS
331
2AC
102
}
  0
BLOCK_RECORD
  5
2AD
330
1
100
AcDbSymbolTableRecord
100
AcDbBlockTableRecord
  2
SOT_89_A_66
340
0
102
{BLKREFS
331
2B4
102
}
  0
BLOCK_RECORD
  5
2B5
330
1
100
AcDbSymbolTableRecord
100
AcDbBlockTableRecord
  2
R0402_M_67
340
0
102
{BLKREFS
331
2BA
102
}
  0
BLOCK_RECORD
  5
2BB
330
1
100
AcDbSymbolTableRecord
100
AcDbBlockTableRecord
  2
R0402_M_68
340
0
102
{BLKREFS
331
2C0
102
}
  0
BLOCK_RECORD
  5
2C1
330
1
100
AcDbSymbolTableRecord
100
AcDbBlockTableRecord
  2
ESP_32S_MODULE_69
340
0
102
{BLKREFS
331
2EB
102
}
  0
BLOCK_RECORD
  5
2EC
330
1
100
AcDbSymbolTableRecord
100
AcDbBlockTableRecord
  2
C0805_M_70
340
0
102
{BLKREFS
331
2F1
102
}
  0
BLOCK_RECORD
  5
2F2
330
1
100
AcDbSymbolTableRecord
100
AcDbBlockTableRecord
  2
C0805_M_71
340
0
102
{BLKREFS
331
2F7
102
}
  0
BLOCK_RECORD
  5
2F8
330
1
100
AcDbSymbolTableRecord
100
AcDbBlockTableRecord
  2
SOT_23_3_72
340
0
102
{BLKREFS
331
2FE
102
}
  0
BLOCK_RECORD
  5
2FF
330
1
100
AcDbSymbolTableRecord
100
AcDbBlockTableRecord
  2
MSM261S4030H0_73
340
0
102
{BLKREFS
331
30A
102
}
  0
BLOCK_RECORD
  5
30B
330
1
100
AcDbSymbolTableRecord
100
AcDbBlockTableRecord
  2
SO_8N_74
340
0
102
{BLKREFS
331
324
102
}
  0
BLOCK_RECORD
  5
325
330
1
100
AcDbSymbolTableRecord
100
AcDbBlockTableRecord
  2
SO_8N_75
340
0
102
{BLKREFS
331
33E
102
}
  0
BLOCK_RECORD
  5
33F
330
1
100
AcDbSymbolTableRecord
100
AcDbBlockTableRecord
  2
SOT_23_3_76
340
0
102
{BLKREFS
331
345
102
}
  0
BLOCK_RECORD
  5
346
330
1
100
AcDbSymbolTableRecord
100
AcDbBlockTableRecord
  2
___4_3_4_77
340
0
102
{BLKREFS
331
34D
102
}
  0
BLOCK_RECORD
  5
34E
330
1
100
AcDbSymbolTableRecord
100
AcDbBlockTableRecord
  2
___4_3_4_78
340
0
102
{BLKREFS
331
355
102
}
  0
BLOCK_RECORD
  5
356
330
1
100
AcDbSymbolTableRecord
100
AcDbBlockTableRecord
  2
R0402_M_79
340
0
102
{BLKREFS
331
35B
102
}
  0
BLOCK_RECORD
  5
35C
330
1
100
AcDbSymbolTableRecord
100
AcDbBlockTableRecord
  2
R0402_M_80
340
0
102
{BLKREFS
331
361
102
}
  0
BLOCK_RECORD
  5
362
330
1
100
AcDbSymbolTableRecord
100
AcDbBlockTableRecord
  2
R0402_M_81
340
0
102
{BLKREFS
331
367
102
}
  0
BLOCK_RECORD
  5
368
330
1
100
AcDbSymbolTableRecord
100
AcDbBlockTableRecord
  2
R0402_M_82
340
0
102
{BLKREFS
331
36D
102
}
  0
BLOCK_RECORD
  5
36E
330
1
100
AcDbSymbolTableRecord
100
AcDbBlockTableRecord
  2
R0402_M_83
340
0
102
{BLKREFS
331
373
102
}
  0
BLOCK_RECORD
  5
374
330
1
100
AcDbSymbolTableRecord
100
AcDbBlockTableRecord
  2
R0402_M_84
340
0
102
{BLKREFS
331
379
102
}
  0
BLOCK_RECORD
  5
37A
330
1
100
AcDbSymbolTableRecord
100
AcDbBlockTableRecord
  2
R0402_M_85
340
0
102
{BLKREFS
331
37F
102
}
  0
BLOCK_RECORD
  5
380
330
1
100
AcDbSymbolTableRecord
100
AcDbBlockTableRecord
  2
R0402_M_86
340
0
102
{BLKREFS
331
385
102
}
  0
BLOCK_RECORD
  5
386
330
1
100
AcDbSymbolTableRecord
100
AcDbBlockTableRecord
  2
R0402_M_87
340
0
102
{BLKREFS
331
38B
102
}
  0
BLOCK_RECORD
  5
38C
330
1
100
AcDbSymbolTableRecord
100
AcDbBlockTableRecord
  2
SOT_23_3___88
340
0
102
{BLKREFS
331
392
102
}
  0
BLOCK_RECORD
  5
393
330
1
100
AcDbSymbolTableRecord
100
AcDbBlockTableRecord
  2
HN1X8_89
340
0
102
{BLKREFS
331
396
102
}
  0
BLOCK_RECORD
  5
397
330
1
100
AcDbSymbolTableRecord
100
AcDbBlockTableRecord
  2
HN1X10_90
340
0
102
{BLKREFS
331
39A
102
}
  0
BLOCK_RECORD
  5
39B
330
1
100
AcDbSymbolTableRecord
100
AcDbBlockTableRecord
  2
HN1X6_91
340
0
102
{BLKREFS
331
39E
102
}
  0
BLOCK_RECORD
  5
39F
330
1
100
AcDbSymbolTableRecord
100
AcDbBlockTableRecord
  2
HN1X8_92
340
0
102
{BLKREFS
331
3A2
102
}
  0
BLOCK_RECORD
  5
3A3
330
1
100
AcDbSymbolTableRecord
100
AcDbBlockTableRecord
  2
FPC_24P_0_5_93
340
0
102
{BLKREFS
331
3C0
102
}
  0
BLOCK_RECORD
  5
3C1
330
1
100
AcDbSymbolTableRecord
100
AcDbBlockTableRecord
  2
TF_SHORT_94
340
0
102
{BLKREFS
331
3D0
102
}
  0
BLOCK_RECORD
  5
3D1
330
1
100
AcDbSymbolTableRecord
100
AcDbBlockTableRecord
  2
USB_C_95
340
0
102
{BLKREFS
331
3E4
102
}
  0
BLOCK_RECORD
  5
3E5
330
1
100
AcDbSymbolTableRecord
100
AcDbBlockTableRecord
  2
FPC_24P_0_5__96
340
0
102
{BLKREFS
331
402
102
}
  0
BLOCK_RECORD
  5
403
330
1
100
AcDbSymbolTableRecord
100
AcDbBlockTableRecord
  2
R0402_M_97
340
0
102
{BLKREFS
331
408
102
}
  0
BLOCK_RECORD
  5
409
330
1
100
AcDbSymbolTableRecord
100
AcDbBlockTableRecord
  2
R0402_M_98
340
0
102
{BLKREFS
331
40E
102
}
  0
BLOCK_RECORD
  5
40F
330
1
100
AcDbSymbolTableRecord
100
AcDbBlockTableRecord
  2
R0402_M_99
340
0
102
{BLKREFS
331
414
102
}
  0
BLOCK_RECORD
  5
415
330
1
100
AcDbSymbolTableRecord
100
AcDbBlockTableRecord
  2
C0805_M_100
340
0
102
{BLKREFS
331
41A
102
}
  0
BLOCK_RECORD
  5
41B
330
1
100
AcDbSymbolTableRecord
100
AcDbBlockTableRecord
  2
C0402_M_101
340
0
102
{BLKREFS
331
420
102
}
  0
BLOCK_RECORD
  5
421
330
1
100
AcDbSymbolTableRecord
100
AcDbBlockTableRecord
  2
C0402_M_102
340
0
102
{BLKREFS
331
426
102
}
  0
BLOCK_RECORD
  5
427
330
1
100
AcDbSymbolTableRecord
100
AcDbBlockTableRecord
  2
C0805_M_103
340
0
102
{BLKREFS
331
42C
102
}
  0
BLOCK_RECORD
  5
42D
330
1
100
AcDbSymbolTableRecord
100
AcDbBlockTableRecord
  2
C0402_M_104
340
0
102
{BLKREFS
331
432
102
}
  0
BLOCK_RECORD
  5
433
330
1
100
AcDbSymbolTableRecord
100
AcDbBlockTableRecord
  2
C0402_M_105
340
0
102
{BLKREFS
331
438
102
}
  0
BLOCK_RECORD
  5
439
330
1
100
AcDbSymbolTableRecord
100
AcDbBlockTableRecord
  2
C0402_M_106
340
0
102
{BLKREFS
331
43E
102
}
  0
BLOCK_RECORD
  5
43F
330
1
100
AcDbSymbolTableRecord
100
AcDbBlockTableRecord
  2
C0402_M_107
340
0
102
{BLKREFS
331
444
102
}
  0
BLOCK_RECORD
  5
445
330
1
100
AcDbSymbolTableRecord
100
AcDbBlockTableRecord
  2
C0402_M_108
340
0
102
{BLKREFS
331
44A
102
}
  0
BLOCK_RECORD
  5
44B
330
1
100
AcDbSymbolTableRecord
100
AcDbBlockTableRecord
  2
C0402_M_109
340
0
102
{BLKREFS
331
450
102
}
  0
BLOCK_RECORD
  5
451
330
1
100
AcDbSymbolTableRecord
100
AcDbBlockTableRecord
  2
C0805_M_110
340
0
102
{BLKREFS
331
456
102
}
  0
BLOCK_RECORD
  5
457
330
1
100
AcDbSymbolTableRecord
100
AcDbBlockTableRecord
  2
C0603_M_111
340
0
102
{BLKREFS
331
45C
102
}
  0
BLOCK_RECORD
  5
45D
330
1
100
AcDbSymbolTableRecord
100
AcDbBlockTableRecord
  2
C0402_M_112
340
0
102
{BLKREFS
331
462
102
}
  0
ENDTAB
  0
ENDSEC
  0
SECTION
  2
BLOCKS
  0
BLOCK
  5
20
330
1F
100
AcDbEntity
  8
0
100
AcDbBlockBegin
  2
*Model_Space
 70
     0
 10
0.0
 20
0.0
 30
0.0
  3
*Model_Space
  1

  0
ENDBLK
  5
21
330
1F
100
AcDbEntity
  8
0
100
AcDbBlockEnd
  0
BLOCK
  5
1C
330
1B
100
AcDbEntity
 67
     1
  8
0
100
AcDbBlockBegin
  2
*Paper_Space
 70
     0
 10
0.0
 20
0.0
 30
0.0
  3
*Paper_Space
  1

  0
ENDBLK
  5
1D
330
1B
100
AcDbEntity
 67
     1
  8
0
100
AcDbBlockEnd
  0
BLOCK
  5
24
330
23
100
AcDbEntity
  8
0
100
AcDbBlockBegin
  2
*Paper_Space0
 70
     0
 10
0.0
 20
0.0
 30
0.0
  3
*Paper_Space0
  1

  0
ENDBLK
  5
25
330
23
100
AcDbEntity
  8
0
100
AcDbBlockEnd
  0
BLOCK
  5
BC
330
BB
100
AcDbEntity
  8
0
100
AcDbBlockBegin
  2
C0805_M_1
 70
     0
 10
0.0
 20
0.0
 30
0.0
  3
C0805_M_1
  1

  0
SOLID
  5
BE
330
BB
100
AcDbEntity
  8
TopPaste
100
AcDbTrace
 10
-0.093599
 20
-0.635
 30
0.0
 11
0.906399
 21
-0.635
 31
0.0
 12
-0.093599
 22
0.635
 32
0.0
 13
0.906399
 23
0.635
 33
0.0
  0
SOLID
  5
BF
330
BB
100
AcDbEntity
  8
TopPaste
100
AcDbTrace
 10
1.659001
 20
-0.635
 30
0.0
 11
2.658999
 21
-0.635
 31
0.0
 12
1.659001
 22
0.635
 32
0.0
 13
2.658999
 23
0.635
 33
0.0
  0
ENDBLK
  5
BD
330
BB
100
AcDbEntity
  8
0
100
AcDbBlockEnd
  0
BLOCK
  5
C2
330
C1
100
AcDbEntity
  8
0
100
AcDbBlockBegin
  2
C0402_M_2
 70
     0
 10
0.0
 20
0.0
 30
0.0
  3
C0402_M_2
  1

  0
SOLID
  5
C4
330
C1
100
AcDbEntity
  8
TopPaste
100
AcDbTrace
 10
-0.7111999999999999
 20
-0.254
 30
0.0
 11
-0.2032
 21
-0.254
 31
0.0
 12
-0.7111999999999999
 22
0.254
 32
0.0
 13
-0.2032
 23
0.254
 33
0.0
  0
SOLID
  5
C5
330
C1
100
AcDbEntity
  8
TopPaste
100
AcDbTrace
 10
0.2032
 20
-0.254
 30
0.0
 11
0.7111999999999999
 21
-0.254
 31
0.0
 12
0.2032
 22
0.254
 32
0.0
 13
0.7111999999999999
 23
0.254
 33
0.0
  0
ENDBLK
  5
C3
330
C1
100
AcDbEntity
  8
0
100
AcDbBlockEnd
  0
BLOCK
  5
C8
330
C7
100
AcDbEntity
  8
0
100
AcDbBlockBegin
  2
SOT_23_3_3
 70
     0
 10
0.0
 20
0.0
 30
0.0
  3
SOT_23_3_3
  1

  0
SOLID
  5
CA
330
C7
100
AcDbEntity
  8
TopPaste
100
AcDbTrace
 10
-0.56061356
 20
0.6555993999999999
 30
0.0
 11
-0.56061356
 21
1.2555982
 31
0.0
 12
-1.71059856
 22
0.6555993999999999
 32
0.0
 13
-1.71059856
 23
1.2555982
 33
0.0
  0
SOLID
  5
CB
330
C7
100
AcDbEntity
  8
TopPaste
100
AcDbTrace
 10
-0.5606161
 20
-1.24438918
 30
0.0
 11
-0.5606161
 21
-0.6443903799999999
 31
0.0
 12
-1.7106011
 22
-1.24438918
 32
0.0
 13
-1.7106011
 23
-0.6443903799999999
 33
0.0
  0
SOLID
  5
CC
330
C7
100
AcDbEntity
  8
TopPaste
100
AcDbTrace
 10
1.6893667
 20
-0.29440886
 30
0.0
 11
1.6893667
 21
0.3055899399999999
 31
0.0
 12
0.5393817
 22
-0.29440886
 32
0.0
 13
0.5393817
 23
0.3055899399999999
 33
0.0
  0
ENDBLK
  5
C9
330
C7
100
AcDbEntity
  8
0
100
AcDbBlockEnd
  0
BLOCK
  5
CF
330
CE
100
AcDbEntity
  8
0
100
AcDbBlockBegin
  2
R0402_M_4
 70
     0
 10
0.0
 20
0.0
 30
0.0
  3
R0402_M_4
  1

  0
SOLID
  5
D1
330
CE
100
AcDbEntity
  8
TopPaste
100
AcDbTrace
 10
-0.7111999999999999
 20
-0.254
 30
0.0
 11
-0.2032
 21
-0.254
 31
0.0
 12
-0.7111999999999999
 22
0.254
 32
0.0
 13
-0.2032
 23
0.254
 33
0.0
  0
SOLID
  5
D2
330
CE
100
AcDbEntity
  8
TopPaste
100
AcDbTrace
 10
0.2032
 20
-0.254
 30
0.0
 11
0.7111999999999999
 21
-0.254
 31
0.0
 12
0.2032
 22
0.254
 32
0.0
 13
0.7111999999999999
 23
0.254
 33
0.0
  0
ENDBLK
  5
D0
330
CE
100
AcDbEntity
  8
0
100
AcDbBlockEnd
  0
BLOCK
  5
D5
330
D4
100
AcDbEntity
  8
0
100
AcDbBlockBegin
  2
C0402_M_5
 70
     0
 10
0.0
 20
0.0
 30
0.0
  3
C0402_M_5
  1

  0
SOLID
  5
D7
330
D4
100
AcDbEntity
  8
TopPaste
100
AcDbTrace
 10
0.2032
 20
-0.254
 30
0.0
 11
0.7111999999999999
 21
-0.254
 31
0.0
 12
0.2032
 22
0.254
 32
0.0
 13
0.7111999999999999
 23
0.254
 33
0.0
  0
SOLID
  5
D8
330
D4
100
AcDbEntity
  8
TopPaste
100
AcDbTrace
 10
-0.7111999999999999
 20
-0.254
 30
0.0
 11
-0.2032
 21
-0.254
 31
0.0
 12
-0.7111999999999999
 22
0.254
 32
0.0
 13
-0.2032
 23
0.254
 33
0.0
  0
ENDBLK
  5
D6
330
D4
100
AcDbEntity
  8
0
100
AcDbBlockEnd
  0
BLOCK
  5
DB
330
DA
100
AcDbEntity
  8
0
100
AcDbBlockBegin
  2
SOT23_5___6
 70
     0
 10
0.0
 20
0.0
 30
0.0
  3
SOT23_5___6
  1

  0
SOLID
  5
DD
330
DA
100
AcDbEntity
  8
TopPaste
100
AcDbTrace
 10
-1.25041914
 20
0.6266078399999999
 30
0.0
 11
-0.64960754
 21
0.6266078399999999
 31
0.0
 12
-1.25041914
 22
1.77740564
 32
0.0
 13
-0.64960754
 23
1.77740564
 33
0.0
  0
SOLID
  5
DE
330
DA
100
AcDbEntity
  8
TopPaste
100
AcDbTrace
 10
0.6495770599999999
 20
0.6266078399999999
 30
0.0
 11
1.25038866
 21
0.6266078399999999
 31
0.0
 12
0.6495770599999999
 22
1.77740564
 32
0.0
 13
1.25038866
 23
1.77740564
 33
0.0
  0
SOLID
  5
DF
330
DA
100
AcDbEntity
  8
TopPaste
100
AcDbTrace
 10
0.6495846799999999
 20
-1.77740818
 30
0.0
 11
1.25039628
 21
-1.77740818
 31
0.0
 12
0.6495846799999999
 22
-0.6266103799999999
 32
0.0
 13
1.25039628
 23
-0.6266103799999999
 33
0.0
  0
SOLID
  5
E0
330
DA
100
AcDbEntity
  8
TopPaste
100
AcDbTrace
 10
-1.2504039
 20
-1.7774031
 30
0.0
 11
-0.6496177
 21
-1.7774031
 31
0.0
 12
-1.2504039
 22
-0.6266053
 32
0.0
 13
-0.6496177
 23
-0.6266053
 33
0.0
  0
SOLID
  5
E1
330
DA
100
AcDbEntity
  8
TopPaste
100
AcDbTrace
 10
-0.30040072
 20
-1.77740818
 30
0.0
 11
0.30041088
 21
-1.77740818
 31
0.0
 12
-0.30040072
 22
-0.6266103799999999
 32
0.0
 13
0.30041088
 23
-0.6266103799999999
 33
0.0
  0
ENDBLK
  5
DC
330
DA
100
AcDbEntity
  8
0
100
AcDbBlockEnd
  0
BLOCK
  5
E4
330
E3
100
AcDbEntity
  8
0
100
AcDbBlockBegin
  2
R0402_M_7
 70
     0
 10
0.0
 20
0.0
 30
0.0
  3
R0402_M_7
  1

  0
SOLID
  5
E6
330
E3
100
AcDbEntity
  8
TopPaste
100
AcDbTrace
 10
-0.7111999999999999
 20
-0.254
 30
0.0
 11
-0.2032
 21
-0.254
 31
0.0
 12
-0.7111999999999999
 22
0.254
 32
0.0
 13
-0.2032
 23
0.254
 33
0.0
  0
SOLID
  5
E7
330
E3
100
AcDbEntity
  8
TopPaste
100
AcDbTrace
 10
0.2032
 20
-0.254
 30
0.0
 11
0.7111999999999999
 21
-0.254
 31
0.0
 12
0.2032
 22
0.254
 32
0.0
 13
0.7111999999999999
 23
0.254
 33
0.0
  0
ENDBLK
  5
E5
330
E3
100
AcDbEntity
  8
0
100
AcDbBlockEnd
  0
BLOCK
  5
EA
330
E9
100
AcDbEntity
  8
0
100
AcDbBlockBegin
  2
R0402_M_8
 70
     0
 10
0.0
 20
0.0
 30
0.0
  3
R0402_M_8
  1

  0
SOLID
  5
EC
330
E9
100
AcDbEntity
  8
TopPaste
100
AcDbTrace
 10
-0.7111999999999999
 20
-0.254
 30
0.0
 11
-0.2032
 21
-0.254
 31
0.0
 12
-0.7111999999999999
 22
0.254
 32
0.0
 13
-0.2032
 23
0.254
 33
0.0
  0
SOLID
  5
ED
330
E9
100
AcDbEntity
  8
TopPaste
100
AcDbTrace
 10
0.2032
 20
-0.254
 30
0.0
 11
0.7111999999999999
 21
-0.254
 31
0.0
 12
0.2032
 22
0.254
 32
0.0
 13
0.7111999999999999
 23
0.254
 33
0.0
  0
ENDBLK
  5
EB
330
E9
100
AcDbEntity
  8
0
100
AcDbBlockEnd
  0
BLOCK
  5
F0
330
EF
100
AcDbEntity
  8
0
100
AcDbBlockBegin
  2
C0402_M_9
 70
     0
 10
0.0
 20
0.0
 30
0.0
  3
C0402_M_9
  1

  0
SOLID
  5
F2
330
EF
100
AcDbEntity
  8
TopPaste
100
AcDbTrace
 10
0.2032
 20
-0.254
 30
0.0
 11
0.7111999999999999
 21
-0.254
 31
0.0
 12
0.2032
 22
0.254
 32
0.0
 13
0.7111999999999999
 23
0.254
 33
0.0
  0
SOLID
  5
F3
330
EF
100
AcDbEntity
  8
TopPaste
100
AcDbTrace
 10
-0.7111999999999999
 20
-0.254
 30
0.0
 11
-0.2032
 21
-0.254
 31
0.0
 12
-0.7111999999999999
 22
0.254
 32
0.0
 13
-0.2032
 23
0.254
 33
0.0
  0
ENDBLK
  5
F1
330
EF
100
AcDbEntity
  8
0
100
AcDbBlockEnd
  0
BLOCK
  5
F6
330
F5
100
AcDbEntity
  8
0
100
AcDbBlockBegin
  2
C0402_M_10
 70
     0
 10
0.0
 20
0.0
 30
0.0
  3
C0402_M_10
  1

  0
SOLID
  5
F8
330
F5
100
AcDbEntity
  8
TopPaste
100
AcDbTrace
 10
0.2032
 20
-0.254
 30
0.0
 11
0.7111999999999999
 21
-0.254
 31
0.0
 12
0.2032
 22
0.254
 32
0.0
 13
0.7111999999999999
 23
0.254
 33
0.0
  0
SOLID
  5
F9
330
F5
100
AcDbEntity
  8
TopPaste
100
AcDbTrace
 10
-0.7111999999999999
 20
-0.254
 30
0.0
 11
-0.2032
 21
-0.254
 31
0.0
 12
-0.7111999999999999
 22
0.254
 32
0.0
 13
-0.2032
 23
0.254
 33
0.0
  0
ENDBLK
  5
F7
330
F5
100
AcDbEntity
  8
0
100
AcDbBlockEnd
  0
BLOCK
  5
FC
330
FB
100
AcDbEntity
  8
0
100
AcDbBlockBegin
  2
R0402_M_11
 70
     0
 10
0.0
 20
0.0
 30
0.0
  3
R0402_M_11
  1

  0
SOLID
  5
FE
330
FB
100
AcDbEntity
  8
TopPaste
100
AcDbTrace
 10
0.2032
 20
-0.254
 30
0.0
 11
0.7111999999999999
 21
-0.254
 31
0.0
 12
0.2032
 22
0.254
 32
0.0
 13
0.7111999999999999
 23
0.254
 33
0.0
  0
SOLID
  5
FF
330
FB
100
AcDbEntity
  8
TopPaste
100
AcDbTrace
 10
-0.7111999999999999
 20
-0.254
 30
0.0
 11
-0.2032
 21
-0.254
 31
0.0
 12
-0.7111999999999999
 22
0.254
 32
0.0
 13
-0.2032
 23
0.254
 33
0.0
  0
ENDBLK
  5
FD
330
FB
100
AcDbEntity
  8
0
100
AcDbBlockEnd
  0
BLOCK
  5
102
330
101
100
AcDbEntity
  8
0
100
AcDbBlockBegin
  2
R0402_M_12
 70
     0
 10
0.0
 20
0.0
 30
0.0
  3
R0402_M_12
  1

  0
SOLID
  5
104
330
101
100
AcDbEntity
  8
TopPaste
100
AcDbTrace
 10
0.2032
 20
-0.254
 30
0.0
 11
0.7111999999999999
 21
-0.254
 31
0.0
 12
0.2032
 22
0.254
 32
0.0
 13
0.7111999999999999
 23
0.254
 33
0.0
  0
SOLID
  5
105
330
101
100
AcDbEntity
  8
TopPaste
100
AcDbTrace
 10
-0.7111999999999999
 20
-0.254
 30
0.0
 11
-0.2032
 21
-0.254
 31
0.0
 12
-0.7111999999999999
 22
0.254
 32
0.0
 13
-0.2032
 23
0.254
 33
0.0
  0
ENDBLK
  5
103
330
101
100
AcDbEntity
  8
0
100
AcDbBlockEnd
  0
BLOCK
  5
108
330
107
100
AcDbEntity
  8
0
100
AcDbBlockBegin
  2
0603_LED_13
 70
     0
 10
0.0
 20
0.0
 30
0.0
  3
0603_LED_13
  1

  0
SOLID
  5
10A
330
107
100
AcDbEntity
  8
TopPaste
100
AcDbTrace
 10
-0.29440378
 20
-0.4064
 30
0.0
 11
-0.29440378
 21
0.4064
 31
0.0
 12
-1.00560378
 22
-0.4064
 32
0.0
 13
-1.00560378
 23
0.4064
 33
0.0
  0
SOLID
  5
10B
330
107
100
AcDbEntity
  8
TopPaste
100
AcDbTrace
 10
1.00560124
 20
-0.4064
 30
0.0
 11
1.00560124
 21
0.4064
 31
0.0
 12
0.29440124
 22
-0.4064
 32
0.0
 13
0.29440124
 23
0.4064
 33
0.0
  0
ENDBLK
  5
109
330
107
100
AcDbEntity
  8
0
100
AcDbBlockEnd
  0
BLOCK
  5
10E
330
10D
100
AcDbEntity
  8
0
100
AcDbBlockBegin
  2
0603_LED_14
 70
     0
 10
0.0
 20
0.0
 30
0.0
  3
0603_LED_14
  1

  0
SOLID
  5
110
330
10D
100
AcDbEntity
  8
TopPaste
100
AcDbTrace
 10
1.00560124
 20
-0.4064
 30
0.0
 11
1.00560124
 21
0.4064
 31
0.0
 12
0.29440124
 22
-0.4064
 32
0.0
 13
0.29440124
 23
0.4064
 33
0.0
  0
SOLID
  5
111
330
10D
100
AcDbEntity
  8
TopPaste
100
AcDbTrace
 10
-0.29440378
 20
-0.4064
 30
0.0
 11
-0.29440378
 21
0.4064
 31
0.0
 12
-1.00560378
 22
-0.4064
 32
0.0
 13
-1.00560378
 23
0.4064
 33
0.0
  0
ENDBLK
  5
10F
330
10D
100
AcDbEntity
  8
0
100
AcDbBlockEnd
  0
BLOCK
  5
114
330
113
100
AcDbEntity
  8
0
100
AcDbBlockBegin
  2
K210______15
 70
     0
 10
0.0
 20
0.0
 30
0.0
  3
K210______15
  1

  0
SOLID
  5
116
330
113
100
AcDbEntity
  8
TopPaste
100
AcDbTrace
 10
17.5665003
 20
8.4509991
 30
0.0
 11
17.5665003
 21
5.148999099999999
 31
0.0
 12
20.2335003
 22
8.4509991
 32
0.0
 13
20.2335003
 23
5.148999099999999
 33
0.0
  0
SOLID
  5
117
330
113
100
AcDbEntity
  8
TopPaste
100
AcDbTrace
 10
-0.7999984
 20
9.924999199999998
 30
0.0
 11
-0.7999984
 21
9.1250008
 31
0.0
 12
0.7999984
 22
9.924999199999998
 32
0.0
 13
0.7999984
 23
9.1250008
 33
0.0
  0
SOLID
  5
118
330
113
100
AcDbEntity
  8
TopPaste
100
AcDbTrace
 10
-0.7999984
 20
11.1949992
 30
0.0
 11
-0.7999984
 21
10.3950008
 31
0.0
 12
0.7999984
 22
11.1949992
 32
0.0
 13
0.7999984
 23
10.3950008
 33
0.0
  0
SOLID
  5
119
330
113
100
AcDbEntity
  8
TopPaste
100
AcDbTrace
 10
-0.7999984
 20
13.7349992
 30
0.0
 11
-0.7999984
 21
12.9350008
 31
0.0
 12
0.7999984
 22
13.7349992
 32
0.0
 13
0.7999984
 23
12.9350008
 33
0.0
  0
SOLID
  5
11A
330
113
100
AcDbEntity
  8
TopPaste
100
AcDbTrace
 10
-0.7999984
 20
12.4649992
 30
0.0
 11
-0.7999984
 21
11.6650008
 31
0.0
 12
0.7999984
 22
12.4649992
 32
0.0
 13
0.7999984
 23
11.6650008
 33
0.0
  0
SOLID
  5
11B
330
113
100
AcDbEntity
  8
TopPaste
100
AcDbTrace
 10
-0.7999984
 20
15.0049992
 30
0.0
 11
-0.7999984
 21
14.2050008
 31
0.0
 12
0.7999984
 22
15.0049992
 32
0.0
 13
0.7999984
 23
14.2050008
 33
0.0
  0
SOLID
  5
11C
330
113
100
AcDbEntity
  8
TopPaste
100
AcDbTrace
 10
-0.7999984
 20
16.2749992
 30
0.0
 11
-0.7999984
 21
15.4750008
 31
0.0
 12
0.7999984
 22
16.2749992
 32
0.0
 13
0.7999984
 23
15.4750008
 33
0.0
  0
SOLID
  5
11D
330
113
100
AcDbEntity
  8
TopPaste
100
AcDbTrace
 10
-0.7999984
 20
17.5449992
 30
0.0
 11
-0.7999984
 21
16.7450008
 31
0.0
 12
0.7999984
 22
17.5449992
 32
0.0
 13
0.7999984
 23
16.7450008
 33
0.0
  0
SOLID
  5
11E
330
113
100
AcDbEntity
  8
TopPaste
100
AcDbTrace
 10
-0.7999984
 20
18.8149992
 30
0.0
 11
-0.7999984
 21
18.0150008
 31
0.0
 12
0.7999984
 22
18.8149992
 32
0.0
 13
0.7999984
 23
18.0150008
 33
0.0
  0
SOLID
  5
11F
330
113
100
AcDbEntity
  8
TopPaste
100
AcDbTrace
 10
-0.7999984
 20
20.0849992
 30
0.0
 11
-0.7999984
 21
19.2850008
 31
0.0
 12
0.7999984
 22
20.0849992
 32
0.0
 13
0.7999984
 23
19.2850008
 33
0.0
  0
SOLID
  5
120
330
113
100
AcDbEntity
  8
TopPaste
100
AcDbTrace
 10
-0.7999984
 20
21.3549992
 30
0.0
 11
-0.7999984
 21
20.5550008
 31
0.0
 12
0.7999984
 22
21.3549992
 32
0.0
 13
0.7999984
 23
20.5550008
 33
0.0
  0
SOLID
  5
121
330
113
100
AcDbEntity
  8
TopPaste
100
AcDbTrace
 10
-0.7999984
 20
22.6249992
 30
0.0
 11
-0.7999984
 21
21.8250008
 31
0.0
 12
0.7999984
 22
22.6249992
 32
0.0
 13
0.7999984
 23
21.8250008
 33
0.0
  0
SOLID
  5
122
330
113
100
AcDbEntity
  8
TopPaste
100
AcDbTrace
 10
-0.7999984
 20
23.8949992
 30
0.0
 11
-0.7999984
 21
23.0950008
 31
0.0
 12
0.7999984
 22
23.8949992
 32
0.0
 13
0.7999984
 23
23.0950008
 33
0.0
  0
SOLID
  5
123
330
113
100
AcDbEntity
  8
TopPaste
100
AcDbTrace
 10
-0.7999984
 20
8.654999199999999
 30
0.0
 11
-0.7999984
 21
7.8550008
 31
0.0
 12
0.7999984
 22
8.654999199999999
 32
0.0
 13
0.7999984
 23
7.8550008
 33
0.0
  0
SOLID
  5
124
330
113
100
AcDbEntity
  8
TopPaste
100
AcDbTrace
 10
-0.7999984
 20
6.1149992
 30
0.0
 11
-0.7999984
 21
5.3150008
 31
0.0
 12
0.7999984
 22
6.1149992
 32
0.0
 13
0.7999984
 23
5.3150008
 33
0.0
  0
SOLID
  5
125
330
113
100
AcDbEntity
  8
TopPaste
100
AcDbTrace
 10
-0.7999984
 20
7.384999199999999
 30
0.0
 11
-0.7999984
 21
6.5850008
 31
0.0
 12
0.7999984
 22
7.384999199999999
 32
0.0
 13
0.7999984
 23
6.5850008
 33
0.0
  0
SOLID
  5
126
330
113
100
AcDbEntity
  8
TopPaste
100
AcDbTrace
 10
-0.7999984
 20
4.8449992
 30
0.0
 11
-0.7999984
 21
4.0450008
 31
0.0
 12
0.7999984
 22
4.8449992
 32
0.0
 13
0.7999984
 23
4.0450008
 33
0.0
  0
SOLID
  5
127
330
113
100
AcDbEntity
  8
TopPaste
100
AcDbTrace
 10
-0.7999984
 20
3.5749992
 30
0.0
 11
-0.7999984
 21
2.7750008
 31
0.0
 12
0.7999984
 22
3.5749992
 32
0.0
 13
0.7999984
 23
2.7750008
 33
0.0
  0
SOLID
  5
128
330
113
100
AcDbEntity
  8
TopPaste
100
AcDbTrace
 10
-0.7999984
 20
2.3049992
 30
0.0
 11
-0.7999984
 21
1.5050008
 31
0.0
 12
0.7999984
 22
2.3049992
 32
0.0
 13
0.7999984
 23
1.5050008
 33
0.0
  0
SOLID
  5
129
330
113
100
AcDbEntity
  8
TopPaste
100
AcDbTrace
 10
15.4750008
 20
24.6000016
 30
0.0
 11
16.2749992
 21
24.6000016
 31
0.0
 12
15.4750008
 22
26.1999984
 32
0.0
 13
16.2749992
 23
26.1999984
 33
0.0
  0
SOLID
  5
12A
330
113
100
AcDbEntity
  8
TopPaste
100
AcDbTrace
 10
14.2050008
 20
24.6000016
 30
0.0
 11
15.0049992
 21
24.6000016
 31
0.0
 12
14.2050008
 22
26.1999984
 32
0.0
 13
15.0049992
 23
26.1999984
 33
0.0
  0
SOLID
  5
12B
330
113
100
AcDbEntity
  8
TopPaste
100
AcDbTrace
 10
11.6650008
 20
24.6000016
 30
0.0
 11
12.4649992
 21
24.6000016
 31
0.0
 12
11.6650008
 22
26.1999984
 32
0.0
 13
12.4649992
 23
26.1999984
 33
0.0
  0
SOLID
  5
12C
330
113
100
AcDbEntity
  8
TopPaste
100
AcDbTrace
 10
12.9350008
 20
24.6000016
 30
0.0
 11
13.7349992
 21
24.6000016
 31
0.0
 12
12.9350008
 22
26.1999984
 32
0.0
 13
13.7349992
 23
26.1999984
 33
0.0
  0
SOLID
  5
12D
330
113
100
AcDbEntity
  8
TopPaste
100
AcDbTrace
 10
10.3950008
 20
24.6000016
 30
0.0
 11
11.1949992
 21
24.6000016
 31
0.0
 12
10.3950008
 22
26.1999984
 32
0.0
 13
11.1949992
 23
26.1999984
 33
0.0
  0
SOLID
  5
12E
330
113
100
AcDbEntity
  8
TopPaste
100
AcDbTrace
 10
9.1250008
 20
24.6000016
 30
0.0
 11
9.924999199999998
 21
24.6000016
 31
0.0
 12
9.1250008
 22
26.1999984
 32
0.0
 13
9.924999199999998
 23
26.1999984
 33
0.0
  0
SOLID
  5
12F
330
113
100
AcDbEntity
  8
TopPaste
100
AcDbTrace
 10
7.8550008
 20
24.6000016
 30
0.0
 11
8.654999199999999
 21
24.6000016
 31
0.0
 12
7.8550008
 22
26.1999984
 32
0.0
 13
8.654999199999999
 23
26.1999984
 33
0.0
  0
SOLID
  5
130
330
113
100
AcDbEntity
  8
TopPaste
100
AcDbTrace
 10
6.5850008
 20
24.6000016
 30
0.0
 11
7.384999199999999
 21
24.6000016
 31
0.0
 12
6.5850008
 22
26.1999984
 32
0.0
 13
7.384999199999999
 23
26.1999984
 33
0.0
  0
SOLID
  5
131
330
113
100
AcDbEntity
  8
TopPaste
100
AcDbTrace
 10
5.3150008
 20
24.6000016
 30
0.0
 11
6.1149992
 21
24.6000016
 31
0.0
 12
5.3150008
 22
26.1999984
 32
0.0
 13
6.1149992
 23
26.1999984
 33
0.0
  0
SOLID
  5
132
330
113
100
AcDbEntity
  8
TopPaste
100
AcDbTrace
 10
4.0450008
 20
24.6000016
 30
0.0
 11
4.8449992
 21
24.6000016
 31
0.0
 12
4.0450008
 22
26.1999984
 32
0.0
 13
4.8449992
 23
26.1999984
 33
0.0
  0
SOLID
  5
133
330
113
100
AcDbEntity
  8
TopPaste
100
AcDbTrace
 10
2.7750008
 20
24.6000016
 30
0.0
 11
3.5749992
 21
24.6000016
 31
0.0
 12
2.7750008
 22
26.1999984
 32
0.0
 13
3.5749992
 23
26.1999984
 33
0.0
  0
SOLID
  5
134
330
113
100
AcDbEntity
  8
TopPaste
100
AcDbTrace
 10
1.5050008
 20
24.6000016
 30
0.0
 11
2.3049992
 21
24.6000016
 31
0.0
 12
1.5050008
 22
26.1999984
 32
0.0
 13
2.3049992
 23
26.1999984
 33
0.0
  0
SOLID
  5
135
330
113
100
AcDbEntity
  8
TopPaste
100
AcDbTrace
 10
16.7450008
 20
24.6000016
 30
0.0
 11
17.5449992
 21
24.6000016
 31
0.0
 12
16.7450008
 22
26.1999984
 32
0.0
 13
17.5449992
 23
26.1999984
 33
0.0
  0
SOLID
  5
136
330
113
100
AcDbEntity
  8
TopPaste
100
AcDbTrace
 10
19.2850008
 20
24.6000016
 30
0.0
 11
20.0849992
 21
24.6000016
 31
0.0
 12
19.2850008
 22
26.1999984
 32
0.0
 13
20.0849992
 23
26.1999984
 33
0.0
  0
SOLID
  5
137
330
113
100
AcDbEntity
  8
TopPaste
100
AcDbTrace
 10
18.0150008
 20
24.6000016
 30
0.0
 11
18.8149992
 21
24.6000016
 31
0.0
 12
18.0150008
 22
26.1999984
 32
0.0
 13
18.8149992
 23
26.1999984
 33
0.0
  0
SOLID
  5
138
330
113
100
AcDbEntity
  8
TopPaste
100
AcDbTrace
 10
20.5550008
 20
24.6000016
 30
0.0
 11
21.3549992
 21
24.6000016
 31
0.0
 12
20.5550008
 22
26.1999984
 32
0.0
 13
21.3549992
 23
26.1999984
 33
0.0
  0
SOLID
  5
139
330
113
100
AcDbEntity
  8
TopPaste
100
AcDbTrace
 10
21.8250008
 20
24.6000016
 30
0.0
 11
22.6249992
 21
24.6000016
 31
0.0
 12
21.8250008
 22
26.1999984
 32
0.0
 13
22.6249992
 23
26.1999984
 33
0.0
  0
SOLID
  5
13A
330
113
100
AcDbEntity
  8
TopPaste
100
AcDbTrace
 10
23.0950008
 20
24.6000016
 30
0.0
 11
23.8949992
 21
24.6000016
 31
0.0
 12
23.0950008
 22
26.1999984
 32
0.0
 13
23.8949992
 23
26.1999984
 33
0.0
  0
SOLID
  5
13B
330
113
100
AcDbEntity
  8
TopPaste
100
AcDbTrace
 10
24.6000016
 20
9.924999199999998
 30
0.0
 11
24.6000016
 21
9.1250008
 31
0.0
 12
26.1999984
 22
9.924999199999998
 32
0.0
 13
26.1999984
 23
9.1250008
 33
0.0
  0
SOLID
  5
13C
330
113
100
AcDbEntity
  8
TopPaste
100
AcDbTrace
 10
24.6000016
 20
11.1949992
 30
0.0
 11
24.6000016
 21
10.3950008
 31
0.0
 12
26.1999984
 22
11.1949992
 32
0.0
 13
26.1999984
 23
10.3950008
 33
0.0
  0
SOLID
  5
13D
330
113
100
AcDbEntity
  8
TopPaste
100
AcDbTrace
 10
24.6000016
 20
13.7349992
 30
0.0
 11
24.6000016
 21
12.9350008
 31
0.0
 12
26.1999984
 22
13.7349992
 32
0.0
 13
26.1999984
 23
12.9350008
 33
0.0
  0
SOLID
  5
13E
330
113
100
AcDbEntity
  8
TopPaste
100
AcDbTrace
 10
24.6000016
 20
12.4649992
 30
0.0
 11
24.6000016
 21
11.6650008
 31
0.0
 12
26.1999984
 22
12.4649992
 32
0.0
 13
26.1999984
 23
11.6650008
 33
0.0
  0
SOLID
  5
13F
330
113
100
AcDbEntity
  8
TopPaste
100
AcDbTrace
 10
24.6000016
 20
15.0049992
 30
0.0
 11
24.6000016
 21
14.2050008
 31
0.0
 12
26.1999984
 22
15.0049992
 32
0.0
 13
26.1999984
 23
14.2050008
 33
0.0
  0
SOLID
  5
140
330
113
100
AcDbEntity
  8
TopPaste
100
AcDbTrace
 10
24.6000016
 20
16.2749992
 30
0.0
 11
24.6000016
 21
15.4750008
 31
0.0
 12
26.1999984
 22
16.2749992
 32
0.0
 13
26.1999984
 23
15.4750008
 33
0.0
  0
SOLID
  5
141
330
113
100
AcDbEntity
  8
TopPaste
100
AcDbTrace
 10
24.6000016
 20
17.5449992
 30
0.0
 11
24.6000016
 21
16.7450008
 31
0.0
 12
26.1999984
 22
17.5449992
 32
0.0
 13
26.1999984
 23
16.7450008
 33
0.0
  0
SOLID
  5
142
330
113
100
AcDbEntity
  8
TopPaste
100
AcDbTrace
 10
24.6000016
 20
18.8149992
 30
0.0
 11
24.6000016
 21
18.0150008
 31
0.0
 12
26.1999984
 22
18.8149992
 32
0.0
 13
26.1999984
 23
18.0150008
 33
0.0
  0
SOLID
  5
143
330
113
100
AcDbEntity
  8
TopPaste
100
AcDbTrace
 10
24.6000016
 20
20.0849992
 30
0.0
 11
24.6000016
 21
19.2850008
 31
0.0
 12
26.1999984
 22
20.0849992
 32
0.0
 13
26.1999984
 23
19.2850008
 33
0.0
  0
SOLID
  5
144
330
113
100
AcDbEntity
  8
TopPaste
100
AcDbTrace
 10
24.6000016
 20
21.3549992
 30
0.0
 11
24.6000016
 21
20.5550008
 31
0.0
 12
26.1999984
 22
21.3549992
 32
0.0
 13
26.1999984
 23
20.5550008
 33
0.0
  0
SOLID
  5
145
330
113
100
AcDbEntity
  8
TopPaste
100
AcDbTrace
 10
24.6000016
 20
22.6249992
 30
0.0
 11
24.6000016
 21
21.8250008
 31
0.0
 12
26.1999984
 22
22.6249992
 32
0.0
 13
26.1999984
 23
21.8250008
 33
0.0
  0
SOLID
  5
146
330
113
100
AcDbEntity
  8
TopPaste
100
AcDbTrace
 10
24.6000016
 20
23.8949992
 30
0.0
 11
24.6000016
 21
23.0950008
 31
0.0
 12
26.1999984
 22
23.8949992
 32
0.0
 13
26.1999984
 23
23.0950008
 33
0.0
  0
SOLID
  5
147
330
113
100
AcDbEntity
  8
TopPaste
100
AcDbTrace
 10
24.6000016
 20
8.654999199999999
 30
0.0
 11
24.6000016
 21
7.8550008
 31
0.0
 12
26.1999984
 22
8.654999199999999
 32
0.0
 13
26.1999984
 23
7.8550008
 33
0.0
  0
SOLID
  5
148
330
113
100
AcDbEntity
  8
TopPaste
100
AcDbTrace
 10
24.6000016
 20
6.1149992
 30
0.0
 11
24.6000016
 21
5.3150008
 31
0.0
 12
26.1999984
 22
6.1149992
 32
0.0
 13
26.1999984
 23
5.3150008
 33
0.0
  0
SOLID
  5
149
330
113
100
AcDbEntity
  8
TopPaste
100
AcDbTrace
 10
24.6000016
 20
7.384999199999999
 30
0.0
 11
24.6000016
 21
6.5850008
 31
0.0
 12
26.1999984
 22
7.384999199999999
 32
0.0
 13
26.1999984
 23
6.5850008
 33
0.0
  0
SOLID
  5
14A
330
113
100
AcDbEntity
  8
TopPaste
100
AcDbTrace
 10
24.6000016
 20
4.8449992
 30
0.0
 11
24.6000016
 21
4.0450008
 31
0.0
 12
26.1999984
 22
4.8449992
 32
0.0
 13
26.1999984
 23
4.0450008
 33
0.0
  0
SOLID
  5
14B
330
113
100
AcDbEntity
  8
TopPaste
100
AcDbTrace
 10
24.6000016
 20
3.5749992
 30
0.0
 11
24.6000016
 21
2.7750008
 31
0.0
 12
26.1999984
 22
3.5749992
 32
0.0
 13
26.1999984
 23
2.7750008
 33
0.0
  0
SOLID
  5
14C
330
113
100
AcDbEntity
  8
TopPaste
100
AcDbTrace
 10
24.8000012
 20
2.3049992
 30
0.0
 11
24.8000012
 21
1.5050008
 31
0.0
 12
25.9999988
 22
2.3049992
 32
0.0
 13
25.9999988
 23
1.5050008
 33
0.0
  0
SOLID
  5
14D
330
113
100
AcDbEntity
  8
TopPaste
100
AcDbTrace
 10
23.0950008
 20
-0.5999987999999999
 30
0.0
 11
23.8949992
 21
-0.5999987999999999
 31
0.0
 12
23.0950008
 22
0.5999987999999999
 32
0.0
 13
23.8949992
 23
0.5999987999999999
 33
0.0
  0
SOLID
  5
14E
330
113
100
AcDbEntity
  8
TopPaste
100
AcDbTrace
 10
21.8250008
 20
-0.7999984
 30
0.0
 11
22.6249992
 21
-0.7999984
 31
0.0
 12
21.8250008
 22
0.7999984
 32
0.0
 13
22.6249992
 23
0.7999984
 33
0.0
  0
SOLID
  5
14F
330
113
100
AcDbEntity
  8
TopPaste
100
AcDbTrace
 10
20.5550008
 20
-0.7999984
 30
0.0
 11
21.3549992
 21
-0.7999984
 31
0.0
 12
20.5550008
 22
0.7999984
 32
0.0
 13
21.3549992
 23
0.7999984
 33
0.0
  0
SOLID
  5
150
330
113
100
AcDbEntity
  8
TopPaste
100
AcDbTrace
 10
18.0150008
 20
-0.7999984
 30
0.0
 11
18.8149992
 21
-0.7999984
 31
0.0
 12
18.0150008
 22
0.7999984
 32
0.0
 13
18.8149992
 23
0.7999984
 33
0.0
  0
SOLID
  5
151
330
113
100
AcDbEntity
  8
TopPaste
100
AcDbTrace
 10
19.2850008
 20
-0.7999984
 30
0.0
 11
20.0849992
 21
-0.7999984
 31
0.0
 12
19.2850008
 22
0.7999984
 32
0.0
 13
20.0849992
 23
0.7999984
 33
0.0
  0
SOLID
  5
152
330
113
100
AcDbEntity
  8
TopPaste
100
AcDbTrace
 10
16.7450008
 20
-0.7999984
 30
0.0
 11
17.5449992
 21
-0.7999984
 31
0.0
 12
16.7450008
 22
0.7999984
 32
0.0
 13
17.5449992
 23
0.7999984
 33
0.0
  0
SOLID
  5
153
330
113
100
AcDbEntity
  8
TopPaste
100
AcDbTrace
 10
1.5050008
 20
-0.7999984
 30
0.0
 11
2.3049992
 21
-0.7999984
 31
0.0
 12
1.5050008
 22
0.7999984
 32
0.0
 13
2.3049992
 23
0.7999984
 33
0.0
  0
SOLID
  5
154
330
113
100
AcDbEntity
  8
TopPaste
100
AcDbTrace
 10
2.7750008
 20
-0.7999984
 30
0.0
 11
3.5749992
 21
-0.7999984
 31
0.0
 12
2.7750008
 22
0.7999984
 32
0.0
 13
3.5749992
 23
0.7999984
 33
0.0
  0
SOLID
  5
155
330
113
100
AcDbEntity
  8
TopPaste
100
AcDbTrace
 10
4.0450008
 20
-0.7999984
 30
0.0
 11
4.8449992
 21
-0.7999984
 31
0.0
 12
4.0450008
 22
0.7999984
 32
0.0
 13
4.8449992
 23
0.7999984
 33
0.0
  0
SOLID
  5
156
330
113
100
AcDbEntity
  8
TopPaste
100
AcDbTrace
 10
5.3150008
 20
-0.7999984
 30
0.0
 11
6.1149992
 21
-0.7999984
 31
0.0
 12
5.3150008
 22
0.7999984
 32
0.0
 13
6.1149992
 23
0.7999984
 33
0.0
  0
SOLID
  5
157
330
113
100
AcDbEntity
  8
TopPaste
100
AcDbTrace
 10
6.5850008
 20
-0.7999984
 30
0.0
 11
7.384999199999999
 21
-0.7999984
 31
0.0
 12
6.5850008
 22
0.7999984
 32
0.0
 13
7.384999199999999
 23
0.7999984
 33
0.0
  0
SOLID
  5
158
330
113
100
AcDbEntity
  8
TopPaste
100
AcDbTrace
 10
7.8550008
 20
-0.7999984
 30
0.0
 11
8.654999199999999
 21
-0.7999984
 31
0.0
 12
7.8550008
 22
0.7999984
 32
0.0
 13
8.654999199999999
 23
0.7999984
 33
0.0
  0
SOLID
  5
159
330
113
100
AcDbEntity
  8
TopPaste
100
AcDbTrace
 10
9.1250008
 20
-0.7999984
 30
0.0
 11
9.924999199999998
 21
-0.7999984
 31
0.0
 12
9.1250008
 22
0.7999984
 32
0.0
 13
9.924999199999998
 23
0.7999984
 33
0.0
  0
SOLID
  5
15A
330
113
100
AcDbEntity
  8
TopPaste
100
AcDbTrace
 10
10.3950008
 20
-0.7999984
 30
0.0
 11
11.1949992
 21
-0.7999984
 31
0.0
 12
10.3950008
 22
0.7999984
 32
0.0
 13
11.1949992
 23
0.7999984
 33
0.0
  0
SOLID
  5
15B
330
113
100
AcDbEntity
  8
TopPaste
100
AcDbTrace
 10
12.9350008
 20
-0.7999984
 30
0.0
 11
13.7349992
 21
-0.7999984
 31
0.0
 12
12.9350008
 22
0.7999984
 32
0.0
 13
13.7349992
 23
0.7999984
 33
0.0
  0
SOLID
  5
15C
330
113
100
AcDbEntity
  8
TopPaste
100
AcDbTrace
 10
11.6650008
 20
-0.7999984
 30
0.0
 11
12.4649992
 21
-0.7999984
 31
0.0
 12
11.6650008
 22
0.7999984
 32
0.0
 13
12.4649992
 23
0.7999984
 33
0.0
  0
SOLID
  5
15D
330
113
100
AcDbEntity
  8
TopPaste
100
AcDbTrace
 10
14.2050008
 20
-0.7999984
 30
0.0
 11
15.0049992
 21
-0.7999984
 31
0.0
 12
14.2050008
 22
0.7999984
 32
0.0
 13
15.0049992
 23
0.7999984
 33
0.0
  0
SOLID
  5
15E
330
113
100
AcDbEntity
  8
TopPaste
100
AcDbTrace
 10
15.4750008
 20
-0.7999984
 30
0.0
 11
16.2749992
 21
-0.7999984
 31
0.0
 12
15.4750008
 22
0.7999984
 32
0.0
 13
16.2749992
 23
0.7999984
 33
0.0
  0
SOLID
  5
15F
330
113
100
AcDbEntity
  8
TopPaste
100
AcDbTrace
 10
-0.1999996
 20
25.5999996
 30
0.0
 11
-0.1999996
 21
24.6000016
 31
0.0
 12
0.7999984
 22
25.5999996
 32
0.0
 13
0.7999984
 23
24.6000016
 33
0.0
  0
SOLID
  5
160
330
113
100
AcDbEntity
  8
TopPaste
100
AcDbTrace
 10
-0.1999996
 20
0.7999984
 30
0.0
 11
-0.1999996
 21
-0.1999996
 31
0.0
 12
0.7999984
 22
0.7999984
 32
0.0
 13
0.7999984
 23
-0.1999996
 33
0.0
  0
SOLID
  5
161
330
113
100
AcDbEntity
  8
TopPaste
100
AcDbTrace
 10
24.6000016
 20
25.5999996
 30
0.0
 11
24.6000016
 21
24.6000016
 31
0.0
 12
25.5999996
 22
25.5999996
 32
0.0
 13
25.5999996
 23
24.6000016
 33
0.0
  0
ENDBLK
  5
115
330
113
100
AcDbEntity
  8
0
100
AcDbBlockEnd
  0
BLOCK
  5
164
330
163
100
AcDbEntity
  8
0
100
AcDbBlockBegin
  2
1_25MM_SMT_2P_16
 70
     0
 10
0.0
 20
0.0
 30
0.0
  3
1_25MM_SMT_2P_16
  1

  0
SOLID
  5
166
330
163
100
AcDbEntity
  8
TopPaste
100
AcDbTrace
 10
-3.60000042
 20
1.39999974
 30
0.0
 11
-1.49999954
 21
1.39999974
 31
0.0
 12
-3.60000042
 22
4.39999882
 32
0.0
 13
-1.49999954
 23
4.39999882
 33
0.0
  0
SOLID
  5
167
330
163
100
AcDbEntity
  8
TopPaste
100
AcDbTrace
 10
1.00000054
 20
-0.7999984
 30
0.0
 11
1.49999954
 21
-0.7999984
 31
0.0
 12
1.00000054
 22
0.7999984
 32
0.0
 13
1.49999954
 23
0.7999984
 33
0.0
  0
SOLID
  5
168
330
163
100
AcDbEntity
  8
TopPaste
100
AcDbTrace
 10
-0.2499995
 20
-0.7999984
 30
0.0
 11
0.2499995
 21
-0.7999984
 31
0.0
 12
-0.2499995
 22
0.7999984
 32
0.0
 13
0.2499995
 23
0.7999984
 33
0.0
  0
SOLID
  5
169
330
163
100
AcDbEntity
  8
TopPaste
100
AcDbTrace
 10
4.85000046
 20
4.39999882
 30
0.0
 11
2.74999958
 21
4.39999882
 31
0.0
 12
4.85000046
 22
1.39999974
 32
0.0
 13
2.74999958
 23
1.39999974
 33
0.0
  0
ENDBLK
  5
165
330
163
100
AcDbEntity
  8
0
100
AcDbBlockEnd
  0
BLOCK
  5
16C
330
16B
100
AcDbEntity
  8
0
100
AcDbBlockBegin
  2
SOD_882_17
 70
     0
 10
0.0
 20
0.0
 30
0.0
  3
SOD_882_17
  1

  0
SOLID
  5
16E
330
16B
100
AcDbEntity
  8
TopPaste
100
AcDbTrace
 10
0.90000074
 20
0.3499993
 30
0.0
 11
0.50000154
 21
0.3499993
 31
0.0
 12
0.90000074
 22
-0.3499993
 32
0.0
 13
0.50000154
 23
-0.3499993
 33
0.0
  0
SOLID
  5
16F
330
16B
100
AcDbEntity
  8
TopPaste
100
AcDbTrace
 10
0.1999996
 20
0.3499993
 30
0.0
 11
-0.1999996
 21
0.3499993
 31
0.0
 12
0.1999996
 22
-0.3499993
 32
0.0
 13
-0.1999996
 23
-0.3499993
 33
0.0
  0
ENDBLK
  5
16D
330
16B
100
AcDbEntity
  8
0
100
AcDbBlockEnd
  0
BLOCK
  5
172
330
171
100
AcDbEntity
  8
0
100
AcDbBlockBegin
  2
SOD_882_18
 70
     0
 10
0.0
 20
0.0
 30
0.0
  3
SOD_882_18
  1

  0
SOLID
  5
174
330
171
100
AcDbEntity
  8
TopPaste
100
AcDbTrace
 10
0.1999996
 20
0.3499993
 30
0.0
 11
-0.1999996
 21
0.3499993
 31
0.0
 12
0.1999996
 22
-0.3499993
 32
0.0
 13
-0.1999996
 23
-0.3499993
 33
0.0
  0
SOLID
  5
175
330
171
100
AcDbEntity
  8
TopPaste
100
AcDbTrace
 10
0.90000074
 20
0.3499993
 30
0.0
 11
0.50000154
 21
0.3499993
 31
0.0
 12
0.90000074
 22
-0.3499993
 32
0.0
 13
0.50000154
 23
-0.3499993
 33
0.0
  0
ENDBLK
  5
173
330
171
100
AcDbEntity
  8
0
100
AcDbBlockEnd
  0
BLOCK
  5
178
330
177
100
AcDbEntity
  8
0
100
AcDbBlockBegin
  2
SOD_882_19
 70
     0
 10
0.0
 20
0.0
 30
0.0
  3
SOD_882_19
  1

  0
SOLID
  5
17A
330
177
100
AcDbEntity
  8
TopPaste
100
AcDbTrace
 10
0.90000074
 20
0.3499993
 30
0.0
 11
0.50000154
 21
0.3499993
 31
0.0
 12
0.90000074
 22
-0.3499993
 32
0.0
 13
0.50000154
 23
-0.3499993
 33
0.0
  0
SOLID
  5
17B
330
177
100
AcDbEntity
  8
TopPaste
100
AcDbTrace
 10
0.1999996
 20
0.3499993
 30
0.0
 11
-0.1999996
 21
0.3499993
 31
0.0
 12
0.1999996
 22
-0.3499993
 32
0.0
 13
-0.1999996
 23
-0.3499993
 33
0.0
  0
ENDBLK
  5
179
330
177
100
AcDbEntity
  8
0
100
AcDbBlockEnd
  0
BLOCK
  5
17E
330
17D
100
AcDbEntity
  8
0
100
AcDbBlockBegin
  2
SOD_882_20
 70
     0
 10
0.0
 20
0.0
 30
0.0
  3
SOD_882_20
  1

  0
SOLID
  5
180
330
17D
100
AcDbEntity
  8
TopPaste
100
AcDbTrace
 10
0.1999996
 20
0.3499993
 30
0.0
 11
-0.1999996
 21
0.3499993
 31
0.0
 12
0.1999996
 22
-0.3499993
 32
0.0
 13
-0.1999996
 23
-0.3499993
 33
0.0
  0
SOLID
  5
181
330
17D
100
AcDbEntity
  8
TopPaste
100
AcDbTrace
 10
0.90000074
 20
0.3499993
 30
0.0
 11
0.50000154
 21
0.3499993
 31
0.0
 12
0.90000074
 22
-0.3499993
 32
0.0
 13
0.50000154
 23
-0.3499993
 33
0.0
  0
ENDBLK
  5
17F
330
17D
100
AcDbEntity
  8
0
100
AcDbBlockEnd
  0
BLOCK
  5
184
330
183
100
AcDbEntity
  8
0
100
AcDbBlockBegin
  2
TSSOP_20_21
 70
     0
 10
0.0
 20
0.0
 30
0.0
  3
TSSOP_20_21
  1

  0
SOLID
  5
186
330
183
100
AcDbEntity
  8
TopPaste
100
AcDbTrace
 10
0.12499848
 20
6.300000099999999
 30
0.0
 11
-0.12499848
 21
6.300000099999999
 31
0.0
 12
0.12499848
 22
5.300002099999999
 32
0.0
 13
-0.12499848
 23
5.300002099999999
 33
0.0
  0
SOLID
  5
187
330
183
100
AcDbEntity
  8
TopPaste
100
AcDbTrace
 10
0.12499848
 20
0.499999
 30
0.0
 11
-0.12499848
 21
0.499999
 31
0.0
 12
0.12499848
 22
-0.499999
 32
0.0
 13
-0.12499848
 23
-0.499999
 33
0.0
  0
SOLID
  5
188
330
183
100
AcDbEntity
  8
TopPaste
100
AcDbTrace
 10
0.77499972
 20
0.499999
 30
0.0
 11
0.52500276
 21
0.499999
 31
0.0
 12
0.77499972
 22
-0.499999
 32
0.0
 13
0.52500276
 23
-0.499999
 33
0.0
  0
SOLID
  5
189
330
183
100
AcDbEntity
  8
TopPaste
100
AcDbTrace
 10
1.42500096
 20
0.499999
 30
0.0
 11
1.175004
 21
0.499999
 31
0.0
 12
1.42500096
 22
-0.499999
 32
0.0
 13
1.175004
 23
-0.499999
 33
0.0
  0
SOLID
  5
18A
330
183
100
AcDbEntity
  8
TopPaste
100
AcDbTrace
 10
2.72500344
 20
0.499999
 30
0.0
 11
2.47500648
 21
0.499999
 31
0.0
 12
2.72500344
 22
-0.499999
 32
0.0
 13
2.47500648
 23
-0.499999
 33
0.0
  0
SOLID
  5
18B
330
183
100
AcDbEntity
  8
TopPaste
100
AcDbTrace
 10
2.0750022
 20
0.499999
 30
0.0
 11
1.82500524
 21
0.499999
 31
0.0
 12
2.0750022
 22
-0.499999
 32
0.0
 13
1.82500524
 23
-0.499999
 33
0.0
  0
SOLID
  5
18C
330
183
100
AcDbEntity
  8
TopPaste
100
AcDbTrace
 10
4.67500716
 20
0.499999
 30
0.0
 11
4.4250102
 21
0.499999
 31
0.0
 12
4.67500716
 22
-0.499999
 32
0.0
 13
4.4250102
 23
-0.499999
 33
0.0
  0
SOLID
  5
18D
330
183
100
AcDbEntity
  8
TopPaste
100
AcDbTrace
 10
5.3250084
 20
0.499999
 30
0.0
 11
5.07501144
 21
0.499999
 31
0.0
 12
5.3250084
 22
-0.499999
 32
0.0
 13
5.07501144
 23
-0.499999
 33
0.0
  0
SOLID
  5
18E
330
183
100
AcDbEntity
  8
TopPaste
100
AcDbTrace
 10
4.02500592
 20
0.499999
 30
0.0
 11
3.77500896
 21
0.499999
 31
0.0
 12
4.02500592
 22
-0.499999
 32
0.0
 13
3.77500896
 23
-0.499999
 33
0.0
  0
SOLID
  5
18F
330
183
100
AcDbEntity
  8
TopPaste
100
AcDbTrace
 10
3.37500468
 20
0.499999
 30
0.0
 11
3.12500772
 21
0.499999
 31
0.0
 12
3.37500468
 22
-0.499999
 32
0.0
 13
3.12500772
 23
-0.499999
 33
0.0
  0
SOLID
  5
190
330
183
100
AcDbEntity
  8
TopPaste
100
AcDbTrace
 10
5.97500964
 20
0.499999
 30
0.0
 11
5.725012679999999
 21
0.499999
 31
0.0
 12
5.97500964
 22
-0.499999
 32
0.0
 13
5.725012679999999
 23
-0.499999
 33
0.0
  0
SOLID
  5
191
330
183
100
AcDbEntity
  8
TopPaste
100
AcDbTrace
 10
5.97500964
 20
6.300000099999999
 30
0.0
 11
5.725012679999999
 21
6.300000099999999
 31
0.0
 12
5.97500964
 22
5.300002099999999
 32
0.0
 13
5.725012679999999
 23
5.300002099999999
 33
0.0
  0
SOLID
  5
192
330
183
100
AcDbEntity
  8
TopPaste
100
AcDbTrace
 10
3.37500468
 20
6.300000099999999
 30
0.0
 11
3.12500772
 21
6.300000099999999
 31
0.0
 12
3.37500468
 22
5.300002099999999
 32
0.0
 13
3.12500772
 23
5.300002099999999
 33
0.0
  0
SOLID
  5
193
330
183
100
AcDbEntity
  8
TopPaste
100
AcDbTrace
 10
4.02500592
 20
6.300000099999999
 30
0.0
 11
3.77500896
 21
6.300000099999999
 31
0.0
 12
4.02500592
 22
5.300002099999999
 32
0.0
 13
3.77500896
 23
5.300002099999999
 33
0.0
  0
SOLID
  5
194
330
183
100
AcDbEntity
  8
TopPaste
100
AcDbTrace
 10
5.3250084
 20
6.300000099999999
 30
0.0
 11
5.07501144
 21
6.300000099999999
 31
0.0
 12
5.3250084
 22
5.300002099999999
 32
0.0
 13
5.07501144
 23
5.300002099999999
 33
0.0
  0
SOLID
  5
195
330
183
100
AcDbEntity
  8
TopPaste
100
AcDbTrace
 10
4.67500716
 20
6.300000099999999
 30
0.0
 11
4.4250102
 21
6.300000099999999
 31
0.0
 12
4.67500716
 22
5.300002099999999
 32
0.0
 13
4.4250102
 23
5.300002099999999
 33
0.0
  0
SOLID
  5
196
330
183
100
AcDbEntity
  8
TopPaste
100
AcDbTrace
 10
2.0750022
 20
6.300000099999999
 30
0.0
 11
1.82500524
 21
6.300000099999999
 31
0.0
 12
2.0750022
 22
5.300002099999999
 32
0.0
 13
1.82500524
 23
5.300002099999999
 33
0.0
  0
SOLID
  5
197
330
183
100
AcDbEntity
  8
TopPaste
100
AcDbTrace
 10
2.72500344
 20
6.300000099999999
 30
0.0
 11
2.47500648
 21
6.300000099999999
 31
0.0
 12
2.72500344
 22
5.300002099999999
 32
0.0
 13
2.47500648
 23
5.300002099999999
 33
0.0
  0
SOLID
  5
198
330
183
100
AcDbEntity
  8
TopPaste
100
AcDbTrace
 10
1.42500096
 20
6.300000099999999
 30
0.0
 11
1.175004
 21
6.300000099999999
 31
0.0
 12
1.42500096
 22
5.300002099999999
 32
0.0
 13
1.175004
 23
5.300002099999999
 33
0.0
  0
SOLID
  5
199
330
183
100
AcDbEntity
  8
TopPaste
100
AcDbTrace
 10
0.77499972
 20
6.300000099999999
 30
0.0
 11
0.52500276
 21
6.300000099999999
 31
0.0
 12
0.77499972
 22
5.300002099999999
 32
0.0
 13
0.52500276
 23
5.300002099999999
 33
0.0
  0
ENDBLK
  5
185
330
183
100
AcDbEntity
  8
0
100
AcDbBlockEnd
  0
BLOCK
  5
19C
330
19B
100
AcDbEntity
  8
0
100
AcDbBlockBegin
  2
R0402_M_22
 70
     0
 10
0.0
 20
0.0
 30
0.0
  3
R0402_M_22
  1

  0
SOLID
  5
19E
330
19B
100
AcDbEntity
  8
TopPaste
100
AcDbTrace
 10
-0.7111999999999999
 20
-0.254
 30
0.0
 11
-0.2032
 21
-0.254
 31
0.0
 12
-0.7111999999999999
 22
0.254
 32
0.0
 13
-0.2032
 23
0.254
 33
0.0
  0
SOLID
  5
19F
330
19B
100
AcDbEntity
  8
TopPaste
100
AcDbTrace
 10
0.2032
 20
-0.254
 30
0.0
 11
0.7111999999999999
 21
-0.254
 31
0.0
 12
0.2032
 22
0.254
 32
0.0
 13
0.7111999999999999
 23
0.254
 33
0.0
  0
ENDBLK
  5
19D
330
19B
100
AcDbEntity
  8
0
100
AcDbBlockEnd
  0
BLOCK
  5
1A2
330
1A1
100
AcDbEntity
  8
0
100
AcDbBlockBegin
  2
R0402_M_23
 70
     0
 10
0.0
 20
0.0
 30
0.0
  3
R0402_M_23
  1

  0
SOLID
  5
1A4
330
1A1
100
AcDbEntity
  8
TopPaste
100
AcDbTrace
 10
-0.7111999999999999
 20
-0.254
 30
0.0
 11
-0.2032
 21
-0.254
 31
0.0
 12
-0.7111999999999999
 22
0.254
 32
0.0
 13
-0.2032
 23
0.254
 33
0.0
  0
SOLID
  5
1A5
330
1A1
100
AcDbEntity
  8
TopPaste
100
AcDbTrace
 10
0.2032
 20
-0.254
 30
0.0
 11
0.7111999999999999
 21
-0.254
 31
0.0
 12
0.2032
 22
0.254
 32
0.0
 13
0.7111999999999999
 23
0.254
 33
0.0
  0
ENDBLK
  5
1A3
330
1A1
100
AcDbEntity
  8
0
100
AcDbBlockEnd
  0
BLOCK
  5
1A8
330
1A7
100
AcDbEntity
  8
0
100
AcDbBlockBegin
  2
R0402_M_24
 70
     0
 10
0.0
 20
0.0
 30
0.0
  3
R0402_M_24
  1

  0
SOLID
  5
1AA
330
1A7
100
AcDbEntity
  8
TopPaste
100
AcDbTrace
 10
-0.7111999999999999
 20
-0.254
 30
0.0
 11
-0.2032
 21
-0.254
 31
0.0
 12
-0.7111999999999999
 22
0.254
 32
0.0
 13
-0.2032
 23
0.254
 33
0.0
  0
SOLID
  5
1AB
330
1A7
100
AcDbEntity
  8
TopPaste
100
AcDbTrace
 10
0.2032
 20
-0.254
 30
0.0
 11
0.7111999999999999
 21
-0.254
 31
0.0
 12
0.2032
 22
0.254
 32
0.0
 13
0.7111999999999999
 23
0.254
 33
0.0
  0
ENDBLK
  5
1A9
330
1A7
100
AcDbEntity
  8
0
100
AcDbBlockEnd
  0
BLOCK
  5
1AE
330
1AD
100
AcDbEntity
  8
0
100
AcDbBlockBegin
  2
R0402_M_25
 70
     0
 10
0.0
 20
0.0
 30
0.0
  3
R0402_M_25
  1

  0
SOLID
  5
1B0
330
1AD
100
AcDbEntity
  8
TopPaste
100
AcDbTrace
 10
-0.7111999999999999
 20
-0.254
 30
0.0
 11
-0.2032
 21
-0.254
 31
0.0
 12
-0.7111999999999999
 22
0.254
 32
0.0
 13
-0.2032
 23
0.254
 33
0.0
  0
SOLID
  5
1B1
330
1AD
100
AcDbEntity
  8
TopPaste
100
AcDbTrace
 10
0.2032
 20
-0.254
 30
0.0
 11
0.7111999999999999
 21
-0.254
 31
0.0
 12
0.2032
 22
0.254
 32
0.0
 13
0.7111999999999999
 23
0.254
 33
0.0
  0
ENDBLK
  5
1AF
330
1AD
100
AcDbEntity
  8
0
100
AcDbBlockEnd
  0
BLOCK
  5
1B4
330
1B3
100
AcDbEntity
  8
0
100
AcDbBlockBegin
  2
R0402_M_26
 70
     0
 10
0.0
 20
0.0
 30
0.0
  3
R0402_M_26
  1

  0
SOLID
  5
1B6
330
1B3
100
AcDbEntity
  8
TopPaste
100
AcDbTrace
 10
-0.7111999999999999
 20
-0.254
 30
0.0
 11
-0.2032
 21
-0.254
 31
0.0
 12
-0.7111999999999999
 22
0.254
 32
0.0
 13
-0.2032
 23
0.254
 33
0.0
  0
SOLID
  5
1B7
330
1B3
100
AcDbEntity
  8
TopPaste
100
AcDbTrace
 10
0.2032
 20
-0.254
 30
0.0
 11
0.7111999999999999
 21
-0.254
 31
0.0
 12
0.2032
 22
0.254
 32
0.0
 13
0.7111999999999999
 23
0.254
 33
0.0
  0
ENDBLK
  5
1B5
330
1B3
100
AcDbEntity
  8
0
100
AcDbBlockEnd
  0
BLOCK
  5
1BA
330
1B9
100
AcDbEntity
  8
0
100
AcDbBlockBegin
  2
R0402_M_27
 70
     0
 10
0.0
 20
0.0
 30
0.0
  3
R0402_M_27
  1

  0
SOLID
  5
1BC
330
1B9
100
AcDbEntity
  8
TopPaste
100
AcDbTrace
 10
-0.7111999999999999
 20
-0.254
 30
0.0
 11
-0.2032
 21
-0.254
 31
0.0
 12
-0.7111999999999999
 22
0.254
 32
0.0
 13
-0.2032
 23
0.254
 33
0.0
  0
SOLID
  5
1BD
330
1B9
100
AcDbEntity
  8
TopPaste
100
AcDbTrace
 10
0.2032
 20
-0.254
 30
0.0
 11
0.7111999999999999
 21
-0.254
 31
0.0
 12
0.2032
 22
0.254
 32
0.0
 13
0.7111999999999999
 23
0.254
 33
0.0
  0
ENDBLK
  5
1BB
330
1B9
100
AcDbEntity
  8
0
100
AcDbBlockEnd
  0
BLOCK
  5
1C0
330
1BF
100
AcDbEntity
  8
0
100
AcDbBlockBegin
  2
0603_LED_28
 70
     0
 10
0.0
 20
0.0
 30
0.0
  3
0603_LED_28
  1

  0
SOLID
  5
1C2
330
1BF
100
AcDbEntity
  8
TopPaste
100
AcDbTrace
 10
1.00560124
 20
-0.4064
 30
0.0
 11
1.00560124
 21
0.4064
 31
0.0
 12
0.29440124
 22
-0.4064
 32
0.0
 13
0.29440124
 23
0.4064
 33
0.0
  0
SOLID
  5
1C3
330
1BF
100
AcDbEntity
  8
TopPaste
100
AcDbTrace
 10
-0.29440378
 20
-0.4064
 30
0.0
 11
-0.29440378
 21
0.4064
 31
0.0
 12
-1.00560378
 22
-0.4064
 32
0.0
 13
-1.00560378
 23
0.4064
 33
0.0
  0
ENDBLK
  5
1C1
330
1BF
100
AcDbEntity
  8
0
100
AcDbBlockEnd
  0
BLOCK
  5
1C6
330
1C5
100
AcDbEntity
  8
0
100
AcDbBlockBegin
  2
0603_LED_29
 70
     0
 10
0.0
 20
0.0
 30
0.0
  3
0603_LED_29
  1

  0
SOLID
  5
1C8
330
1C5
100
AcDbEntity
  8
TopPaste
100
AcDbTrace
 10
1.00560124
 20
-0.4064
 30
0.0
 11
1.00560124
 21
0.4064
 31
0.0
 12
0.29440124
 22
-0.4064
 32
0.0
 13
0.29440124
 23
0.4064
 33
0.0
  0
SOLID
  5
1C9
330
1C5
100
AcDbEntity
  8
TopPaste
100
AcDbTrace
 10
-0.29440378
 20
-0.4064
 30
0.0
 11
-0.29440378
 21
0.4064
 31
0.0
 12
-1.00560378
 22
-0.4064
 32
0.0
 13
-1.00560378
 23
0.4064
 33
0.0
  0
ENDBLK
  5
1C7
330
1C5
100
AcDbEntity
  8
0
100
AcDbBlockEnd
  0
BLOCK
  5
1CC
330
1CB
100
AcDbEntity
  8
0
100
AcDbBlockBegin
  2
C0402_M_30
 70
     0
 10
0.0
 20
0.0
 30
0.0
  3
C0402_M_30
  1

  0
SOLID
  5
1CE
330
1CB
100
AcDbEntity
  8
TopPaste
100
AcDbTrace
 10
0.2032
 20
-0.254
 30
0.0
 11
0.7111999999999999
 21
-0.254
 31
0.0
 12
0.2032
 22
0.254
 32
0.0
 13
0.7111999999999999
 23
0.254
 33
0.0
  0
SOLID
  5
1CF
330
1CB
100
AcDbEntity
  8
TopPaste
100
AcDbTrace
 10
-0.7111999999999999
 20
-0.254
 30
0.0
 11
-0.2032
 21
-0.254
 31
0.0
 12
-0.7111999999999999
 22
0.254
 32
0.0
 13
-0.2032
 23
0.254
 33
0.0
  0
ENDBLK
  5
1CD
330
1CB
100
AcDbEntity
  8
0
100
AcDbBlockEnd
  0
BLOCK
  5
1D2
330
1D1
100
AcDbEntity
  8
0
100
AcDbBlockBegin
  2
C0402_M_31
 70
     0
 10
0.0
 20
0.0
 30
0.0
  3
C0402_M_31
  1

  0
SOLID
  5
1D4
330
1D1
100
AcDbEntity
  8
TopPaste
100
AcDbTrace
 10
0.2032
 20
-0.254
 30
0.0
 11
0.7111999999999999
 21
-0.254
 31
0.0
 12
0.2032
 22
0.254
 32
0.0
 13
0.7111999999999999
 23
0.254
 33
0.0
  0
SOLID
  5
1D5
330
1D1
100
AcDbEntity
  8
TopPaste
100
AcDbTrace
 10
-0.7111999999999999
 20
-0.254
 30
0.0
 11
-0.2032
 21
-0.254
 31
0.0
 12
-0.7111999999999999
 22
0.254
 32
0.0
 13
-0.2032
 23
0.254
 33
0.0
  0
ENDBLK
  5
1D3
330
1D1
100
AcDbEntity
  8
0
100
AcDbBlockEnd
  0
BLOCK
  5
1D8
330
1D7
100
AcDbEntity
  8
0
100
AcDbBlockBegin
  2
C0402_M_32
 70
     0
 10
0.0
 20
0.0
 30
0.0
  3
C0402_M_32
  1

  0
SOLID
  5
1DA
330
1D7
100
AcDbEntity
  8
TopPaste
100
AcDbTrace
 10
0.2032
 20
-0.254
 30
0.0
 11
0.7111999999999999
 21
-0.254
 31
0.0
 12
0.2032
 22
0.254
 32
0.0
 13
0.7111999999999999
 23
0.254
 33
0.0
  0
SOLID
  5
1DB
330
1D7
100
AcDbEntity
  8
TopPaste
100
AcDbTrace
 10
-0.7111999999999999
 20
-0.254
 30
0.0
 11
-0.2032
 21
-0.254
 31
0.0
 12
-0.7111999999999999
 22
0.254
 32
0.0
 13
-0.2032
 23
0.254
 33
0.0
  0
ENDBLK
  5
1D9
330
1D7
100
AcDbEntity
  8
0
100
AcDbBlockEnd
  0
BLOCK
  5
1DE
330
1DD
100
AcDbEntity
  8
0
100
AcDbBlockBegin
  2
C0402_M_33
 70
     0
 10
0.0
 20
0.0
 30
0.0
  3
C0402_M_33
  1

  0
SOLID
  5
1E0
330
1DD
100
AcDbEntity
  8
TopPaste
100
AcDbTrace
 10
0.2032
 20
-0.254
 30
0.0
 11
0.7111999999999999
 21
-0.254
 31
0.0
 12
0.2032
 22
0.254
 32
0.0
 13
0.7111999999999999
 23
0.254
 33
0.0
  0
SOLID
  5
1E1
330
1DD
100
AcDbEntity
  8
TopPaste
100
AcDbTrace
 10
-0.7111999999999999
 20
-0.254
 30
0.0
 11
-0.2032
 21
-0.254
 31
0.0
 12
-0.7111999999999999
 22
0.254
 32
0.0
 13
-0.2032
 23
0.254
 33
0.0
  0
ENDBLK
  5
1DF
330
1DD
100
AcDbEntity
  8
0
100
AcDbBlockEnd
  0
BLOCK
  5
1E4
330
1E3
100
AcDbEntity
  8
0
100
AcDbBlockBegin
  2
C0402_M_34
 70
     0
 10
0.0
 20
0.0
 30
0.0
  3
C0402_M_34
  1

  0
SOLID
  5
1E6
330
1E3
100
AcDbEntity
  8
TopPaste
100
AcDbTrace
 10
0.2032
 20
-0.254
 30
0.0
 11
0.7111999999999999
 21
-0.254
 31
0.0
 12
0.2032
 22
0.254
 32
0.0
 13
0.7111999999999999
 23
0.254
 33
0.0
  0
SOLID
  5
1E7
330
1E3
100
AcDbEntity
  8
TopPaste
100
AcDbTrace
 10
-0.7111999999999999
 20
-0.254
 30
0.0
 11
-0.2032
 21
-0.254
 31
0.0
 12
-0.7111999999999999
 22
0.254
 32
0.0
 13
-0.2032
 23
0.254
 33
0.0
  0
ENDBLK
  5
1E5
330
1E3
100
AcDbEntity
  8
0
100
AcDbBlockEnd
  0
BLOCK
  5
1EA
330
1E9
100
AcDbEntity
  8
0
100
AcDbBlockBegin
  2
C0805_M_35
 70
     0
 10
0.0
 20
0.0
 30
0.0
  3
C0805_M_35
  1

  0
SOLID
  5
1EC
330
1E9
100
AcDbEntity
  8
TopPaste
100
AcDbTrace
 10
-0.093599
 20
-0.635
 30
0.0
 11
0.906399
 21
-0.635
 31
0.0
 12
-0.093599
 22
0.635
 32
0.0
 13
0.906399
 23
0.635
 33
0.0
  0
SOLID
  5
1ED
330
1E9
100
AcDbEntity
  8
TopPaste
100
AcDbTrace
 10
1.659001
 20
-0.635
 30
0.0
 11
2.658999
 21
-0.635
 31
0.0
 12
1.659001
 22
0.635
 32
0.0
 13
2.658999
 23
0.635
 33
0.0
  0
ENDBLK
  5
1EB
330
1E9
100
AcDbEntity
  8
0
100
AcDbBlockEnd
  0
BLOCK
  5
1F0
330
1EF
100
AcDbEntity
  8
0
100
AcDbBlockBegin
  2
SOT23_6___36
 70
     0
 10
0.0
 20
0.0
 30
0.0
  3
SOT23_6___36
  1

  0
SOLID
  5
1F2
330
1EF
100
AcDbEntity
  8
TopPaste
100
AcDbTrace
 10
-0.30040072
 20
-1.95241418
 30
0.0
 11
0.30041088
 21
-1.95241418
 31
0.0
 12
-0.30040072
 22
-0.45160438
 32
0.0
 13
0.30041088
 23
-0.45160438
 33
0.0
  0
SOLID
  5
1F3
330
1EF
100
AcDbEntity
  8
TopPaste
100
AcDbTrace
 10
-1.2504039
 20
-1.9523964
 30
0.0
 11
-0.6496177
 21
-1.9523964
 31
0.0
 12
-1.2504039
 22
-0.451612
 32
0.0
 13
-0.6496177
 23
-0.451612
 33
0.0
  0
SOLID
  5
1F4
330
1EF
100
AcDbEntity
  8
TopPaste
100
AcDbTrace
 10
0.6495846799999999
 20
-1.95241418
 30
0.0
 11
1.25039628
 21
-1.95241418
 31
0.0
 12
0.6495846799999999
 22
-0.45160438
 32
0.0
 13
1.25039628
 23
-0.45160438
 33
0.0
  0
SOLID
  5
1F5
330
1EF
100
AcDbEntity
  8
TopPaste
100
AcDbTrace
 10
0.6495770599999999
 20
0.45160184
 30
0.0
 11
1.25038866
 21
0.45160184
 31
0.0
 12
0.6495770599999999
 22
1.95241164
 32
0.0
 13
1.25038866
 23
1.95241164
 33
0.0
  0
SOLID
  5
1F6
330
1EF
100
AcDbEntity
  8
TopPaste
100
AcDbTrace
 10
-1.25041914
 20
0.45160184
 30
0.0
 11
-0.64960754
 21
0.45160184
 31
0.0
 12
-1.25041914
 22
1.95241164
 32
0.0
 13
-0.64960754
 23
1.95241164
 33
0.0
  0
SOLID
  5
1F7
330
1EF
100
AcDbEntity
  8
TopPaste
100
AcDbTrace
 10
-0.3004032599999999
 20
0.45159676
 30
0.0
 11
0.30040834
 21
0.45159676
 31
0.0
 12
-0.3004032599999999
 22
1.95240656
 32
0.0
 13
0.30040834
 23
1.95240656
 33
0.0
  0
ENDBLK
  5
1F1
330
1EF
100
AcDbEntity
  8
0
100
AcDbBlockEnd
  0
BLOCK
  5
1FA
330
1F9
100
AcDbEntity
  8
0
100
AcDbBlockBegin
  2
R0402_M_37
 70
     0
 10
0.0
 20
0.0
 30
0.0
  3
R0402_M_37
  1

  0
SOLID
  5
1FC
330
1F9
100
AcDbEntity
  8
TopPaste
100
AcDbTrace
 10
-0.7111999999999999
 20
-0.254
 30
0.0
 11
-0.2032
 21
-0.254
 31
0.0
 12
-0.7111999999999999
 22
0.254
 32
0.0
 13
-0.2032
 23
0.254
 33
0.0
  0
SOLID
  5
1FD
330
1F9
100
AcDbEntity
  8
TopPaste
100
AcDbTrace
 10
0.2032
 20
-0.254
 30
0.0
 11
0.7111999999999999
 21
-0.254
 31
0.0
 12
0.2032
 22
0.254
 32
0.0
 13
0.7111999999999999
 23
0.254
 33
0.0
  0
ENDBLK
  5
1FB
330
1F9
100
AcDbEntity
  8
0
100
AcDbBlockEnd
  0
BLOCK
  5
200
330
1FF
100
AcDbEntity
  8
0
100
AcDbBlockBegin
  2
R0402_M_38
 70
     0
 10
0.0
 20
0.0
 30
0.0
  3
R0402_M_38
  1

  0
SOLID
  5
202
330
1FF
100
AcDbEntity
  8
TopPaste
100
AcDbTrace
 10
-0.7111999999999999
 20
-0.254
 30
0.0
 11
-0.2032
 21
-0.254
 31
0.0
 12
-0.7111999999999999
 22
0.254
 32
0.0
 13
-0.2032
 23
0.254
 33
0.0
  0
SOLID
  5
203
330
1FF
100
AcDbEntity
  8
TopPaste
100
AcDbTrace
 10
0.2032
 20
-0.254
 30
0.0
 11
0.7111999999999999
 21
-0.254
 31
0.0
 12
0.2032
 22
0.254
 32
0.0
 13
0.7111999999999999
 23
0.254
 33
0.0
  0
ENDBLK
  5
201
330
1FF
100
AcDbEntity
  8
0
100
AcDbBlockEnd
  0
BLOCK
  5
206
330
205
100
AcDbEntity
  8
0
100
AcDbBlockBegin
  2
R0402_M_39
 70
     0
 10
0.0
 20
0.0
 30
0.0
  3
R0402_M_39
  1

  0
SOLID
  5
208
330
205
100
AcDbEntity
  8
TopPaste
100
AcDbTrace
 10
-0.7111999999999999
 20
-0.254
 30
0.0
 11
-0.2032
 21
-0.254
 31
0.0
 12
-0.7111999999999999
 22
0.254
 32
0.0
 13
-0.2032
 23
0.254
 33
0.0
  0
SOLID
  5
209
330
205
100
AcDbEntity
  8
TopPaste
100
AcDbTrace
 10
0.2032
 20
-0.254
 30
0.0
 11
0.7111999999999999
 21
-0.254
 31
0.0
 12
0.2032
 22
0.254
 32
0.0
 13
0.7111999999999999
 23
0.254
 33
0.0
  0
ENDBLK
  5
207
330
205
100
AcDbEntity
  8
0
100
AcDbBlockEnd
  0
BLOCK
  5
20C
330
20B
100
AcDbEntity
  8
0
100
AcDbBlockBegin
  2
R0402_M_40
 70
     0
 10
0.0
 20
0.0
 30
0.0
  3
R0402_M_40
  1

  0
SOLID
  5
20E
330
20B
100
AcDbEntity
  8
TopPaste
100
AcDbTrace
 10
-0.7111999999999999
 20
-0.254
 30
0.0
 11
-0.2032
 21
-0.254
 31
0.0
 12
-0.7111999999999999
 22
0.254
 32
0.0
 13
-0.2032
 23
0.254
 33
0.0
  0
SOLID
  5
20F
330
20B
100
AcDbEntity
  8
TopPaste
100
AcDbTrace
 10
0.2032
 20
-0.254
 30
0.0
 11
0.7111999999999999
 21
-0.254
 31
0.0
 12
0.2032
 22
0.254
 32
0.0
 13
0.7111999999999999
 23
0.254
 33
0.0
  0
ENDBLK
  5
20D
330
20B
100
AcDbEntity
  8
0
100
AcDbBlockEnd
  0
BLOCK
  5
212
330
211
100
AcDbEntity
  8
0
100
AcDbBlockBegin
  2
R0402_M_41
 70
     0
 10
0.0
 20
0.0
 30
0.0
  3
R0402_M_41
  1

  0
SOLID
  5
214
330
211
100
AcDbEntity
  8
TopPaste
100
AcDbTrace
 10
-0.7111999999999999
 20
-0.254
 30
0.0
 11
-0.2032
 21
-0.254
 31
0.0
 12
-0.7111999999999999
 22
0.254
 32
0.0
 13
-0.2032
 23
0.254
 33
0.0
  0
SOLID
  5
215
330
211
100
AcDbEntity
  8
TopPaste
100
AcDbTrace
 10
0.2032
 20
-0.254
 30
0.0
 11
0.7111999999999999
 21
-0.254
 31
0.0
 12
0.2032
 22
0.254
 32
0.0
 13
0.7111999999999999
 23
0.254
 33
0.0
  0
ENDBLK
  5
213
330
211
100
AcDbEntity
  8
0
100
AcDbBlockEnd
  0
BLOCK
  5
218
330
217
100
AcDbEntity
  8
0
100
AcDbBlockBegin
  2
R0402_M_42
 70
     0
 10
0.0
 20
0.0
 30
0.0
  3
R0402_M_42
  1

  0
SOLID
  5
21A
330
217
100
AcDbEntity
  8
TopPaste
100
AcDbTrace
 10
-0.7111999999999999
 20
-0.254
 30
0.0
 11
-0.2032
 21
-0.254
 31
0.0
 12
-0.7111999999999999
 22
0.254
 32
0.0
 13
-0.2032
 23
0.254
 33
0.0
  0
SOLID
  5
21B
330
217
100
AcDbEntity
  8
TopPaste
100
AcDbTrace
 10
0.2032
 20
-0.254
 30
0.0
 11
0.7111999999999999
 21
-0.254
 31
0.0
 12
0.2032
 22
0.254
 32
0.0
 13
0.7111999999999999
 23
0.254
 33
0.0
  0
ENDBLK
  5
219
330
217
100
AcDbEntity
  8
0
100
AcDbBlockEnd
  0
BLOCK
  5
21E
330
21D
100
AcDbEntity
  8
0
100
AcDbBlockBegin
  2
NR3015_43
 70
     0
 10
0.0
 20
0.0
 30
0.0
  3
NR3015_43
  1

  0
SOLID
  5
220
330
21D
100
AcDbEntity
  8
TopPaste
100
AcDbTrace
 10
2.709799
 20
1.34999984
 30
0.0
 11
1.709801
 21
1.34999984
 31
0.0
 12
2.709799
 22
-1.34999984
 32
0.0
 13
1.709801
 23
-1.34999984
 33
0.0
  0
SOLID
  5
221
330
21D
100
AcDbEntity
  8
TopPaste
100
AcDbTrace
 10
0.499999
 20
1.34999984
 30
0.0
 11
-0.499999
 21
1.34999984
 31
0.0
 12
0.499999
 22
-1.34999984
 32
0.0
 13
-0.499999
 23
-1.34999984
 33
0.0
  0
ENDBLK
  5
21F
330
21D
100
AcDbEntity
  8
0
100
AcDbBlockEnd
  0
BLOCK
  5
224
330
223
100
AcDbEntity
  8
0
100
AcDbBlockBegin
  2
SOD123_FL_44
 70
     0
 10
0.0
 20
0.0
 30
0.0
  3
SOD123_FL_44
  1

  0
SOLID
  5
226
330
223
100
AcDbEntity
  8
TopPaste
100
AcDbTrace
 10
0.60999878
 20
-0.60999878
 30
0.0
 11
0.60999878
 21
0.60999878
 31
0.0
 12
-0.60999878
 22
-0.60999878
 32
0.0
 13
-0.60999878
 23
0.60999878
 33
0.0
  0
SOLID
  5
227
330
223
100
AcDbEntity
  8
TopPaste
100
AcDbTrace
 10
3.70999766
 20
-0.60999878
 30
0.0
 11
3.70999766
 21
0.60999878
 31
0.0
 12
2.4900001
 22
-0.60999878
 32
0.0
 13
2.4900001
 23
0.60999878
 33
0.0
  0
ENDBLK
  5
225
330
223
100
AcDbEntity
  8
0
100
AcDbBlockEnd
  0
BLOCK
  5
22A
330
229
100
AcDbEntity
  8
0
100
AcDbBlockBegin
  2
SOD123_FL_45
 70
     0
 10
0.0
 20
0.0
 30
0.0
  3
SOD123_FL_45
  1

  0
SOLID
  5
22C
330
229
100
AcDbEntity
  8
TopPaste
100
AcDbTrace
 10
3.70999766
 20
-0.60999878
 30
0.0
 11
3.70999766
 21
0.60999878
 31
0.0
 12
2.4900001
 22
-0.60999878
 32
0.0
 13
2.4900001
 23
0.60999878
 33
0.0
  0
SOLID
  5
22D
330
229
100
AcDbEntity
  8
TopPaste
100
AcDbTrace
 10
0.60999878
 20
-0.60999878
 30
0.0
 11
0.60999878
 21
0.60999878
 31
0.0
 12
-0.60999878
 22
-0.60999878
 32
0.0
 13
-0.60999878
 23
0.60999878
 33
0.0
  0
ENDBLK
  5
22B
330
229
100
AcDbEntity
  8
0
100
AcDbBlockEnd
  0
BLOCK
  5
230
330
22F
100
AcDbEntity
  8
0
100
AcDbBlockBegin
  2
C0402_M_46
 70
     0
 10
0.0
 20
0.0
 30
0.0
  3
C0402_M_46
  1

  0
SOLID
  5
232
330
22F
100
AcDbEntity
  8
TopPaste
100
AcDbTrace
 10
0.2032
 20
-0.254
 30
0.0
 11
0.7111999999999999
 21
-0.254
 31
0.0
 12
0.2032
 22
0.254
 32
0.0
 13
0.7111999999999999
 23
0.254
 33
0.0
  0
SOLID
  5
233
330
22F
100
AcDbEntity
  8
TopPaste
100
AcDbTrace
 10
-0.7111999999999999
 20
-0.254
 30
0.0
 11
-0.2032
 21
-0.254
 31
0.0
 12
-0.7111999999999999
 22
0.254
 32
0.0
 13
-0.2032
 23
0.254
 33
0.0
  0
ENDBLK
  5
231
330
22F
100
AcDbEntity
  8
0
100
AcDbBlockEnd
  0
BLOCK
  5
236
330
235
100
AcDbEntity
  8
0
100
AcDbBlockBegin
  2
C0402_M_47
 70
     0
 10
0.0
 20
0.0
 30
0.0
  3
C0402_M_47
  1

  0
SOLID
  5
238
330
235
100
AcDbEntity
  8
TopPaste
100
AcDbTrace
 10
0.2032
 20
-0.254
 30
0.0
 11
0.7111999999999999
 21
-0.254
 31
0.0
 12
0.2032
 22
0.254
 32
0.0
 13
0.7111999999999999
 23
0.254
 33
0.0
  0
SOLID
  5
239
330
235
100
AcDbEntity
  8
TopPaste
100
AcDbTrace
 10
-0.7111999999999999
 20
-0.254
 30
0.0
 11
-0.2032
 21
-0.254
 31
0.0
 12
-0.7111999999999999
 22
0.254
 32
0.0
 13
-0.2032
 23
0.254
 33
0.0
  0
ENDBLK
  5
237
330
235
100
AcDbEntity
  8
0
100
AcDbBlockEnd
  0
BLOCK
  5
23C
330
23B
100
AcDbEntity
  8
0
100
AcDbBlockBegin
  2
C0402_M_48
 70
     0
 10
0.0
 20
0.0
 30
0.0
  3
C0402_M_48
  1

  0
SOLID
  5
23E
330
23B
100
AcDbEntity
  8
TopPaste
100
AcDbTrace
 10
0.2032
 20
-0.254
 30
0.0
 11
0.7111999999999999
 21
-0.254
 31
0.0
 12
0.2032
 22
0.254
 32
0.0
 13
0.7111999999999999
 23
0.254
 33
0.0
  0
SOLID
  5
23F
330
23B
100
AcDbEntity
  8
TopPaste
100
AcDbTrace
 10
-0.7111999999999999
 20
-0.254
 30
0.0
 11
-0.2032
 21
-0.254
 31
0.0
 12
-0.7111999999999999
 22
0.254
 32
0.0
 13
-0.2032
 23
0.254
 33
0.0
  0
ENDBLK
  5
23D
330
23B
100
AcDbEntity
  8
0
100
AcDbBlockEnd
  0
BLOCK
  5
242
330
241
100
AcDbEntity
  8
0
100
AcDbBlockBegin
  2
R0402_M_49
 70
     0
 10
0.0
 20
0.0
 30
0.0
  3
R0402_M_49
  1

  0
SOLID
  5
244
330
241
100
AcDbEntity
  8
TopPaste
100
AcDbTrace
 10
-0.7111999999999999
 20
-0.254
 30
0.0
 11
-0.2032
 21
-0.254
 31
0.0
 12
-0.7111999999999999
 22
0.254
 32
0.0
 13
-0.2032
 23
0.254
 33
0.0
  0
SOLID
  5
245
330
241
100
AcDbEntity
  8
TopPaste
100
AcDbTrace
 10
0.2032
 20
-0.254
 30
0.0
 11
0.7111999999999999
 21
-0.254
 31
0.0
 12
0.2032
 22
0.254
 32
0.0
 13
0.7111999999999999
 23
0.254
 33
0.0
  0
ENDBLK
  5
243
330
241
100
AcDbEntity
  8
0
100
AcDbBlockEnd
  0
BLOCK
  5
248
330
247
100
AcDbEntity
  8
0
100
AcDbBlockBegin
  2
R0402_M_50
 70
     0
 10
0.0
 20
0.0
 30
0.0
  3
R0402_M_50
  1

  0
SOLID
  5
24A
330
247
100
AcDbEntity
  8
TopPaste
100
AcDbTrace
 10
-0.7111999999999999
 20
-0.254
 30
0.0
 11
-0.2032
 21
-0.254
 31
0.0
 12
-0.7111999999999999
 22
0.254
 32
0.0
 13
-0.2032
 23
0.254
 33
0.0
  0
SOLID
  5
24B
330
247
100
AcDbEntity
  8
TopPaste
100
AcDbTrace
 10
0.2032
 20
-0.254
 30
0.0
 11
0.7111999999999999
 21
-0.254
 31
0.0
 12
0.2032
 22
0.254
 32
0.0
 13
0.7111999999999999
 23
0.254
 33
0.0
  0
ENDBLK
  5
249
330
247
100
AcDbEntity
  8
0
100
AcDbBlockEnd
  0
BLOCK
  5
24E
330
24D
100
AcDbEntity
  8
0
100
AcDbBlockBegin
  2
R0603_M_51
 70
     0
 10
0.0
 20
0.0
 30
0.0
  3
R0603_M_51
  1

  0
SOLID
  5
250
330
24D
100
AcDbEntity
  8
TopPaste
100
AcDbTrace
 10
-0.29440378
 20
-0.4064
 30
0.0
 11
-0.29440378
 21
0.4064
 31
0.0
 12
-1.00560378
 22
-0.4064
 32
0.0
 13
-1.00560378
 23
0.4064
 33
0.0
  0
SOLID
  5
251
330
24D
100
AcDbEntity
  8
TopPaste
100
AcDbTrace
 10
1.00560124
 20
-0.4064
 30
0.0
 11
1.00560124
 21
0.4064
 31
0.0
 12
0.29440124
 22
-0.4064
 32
0.0
 13
0.29440124
 23
0.4064
 33
0.0
  0
ENDBLK
  5
24F
330
24D
100
AcDbEntity
  8
0
100
AcDbBlockEnd
  0
BLOCK
  5
254
330
253
100
AcDbEntity
  8
0
100
AcDbBlockBegin
  2
R0402_M_52
 70
     0
 10
0.0
 20
0.0
 30
0.0
  3
R0402_M_52
  1

  0
SOLID
  5
256
330
253
100
AcDbEntity
  8
TopPaste
100
AcDbTrace
 10
-0.7111999999999999
 20
-0.254
 30
0.0
 11
-0.2032
 21
-0.254
 31
0.0
 12
-0.7111999999999999
 22
0.254
 32
0.0
 13
-0.2032
 23
0.254
 33
0.0
  0
SOLID
  5
257
330
253
100
AcDbEntity
  8
TopPaste
100
AcDbTrace
 10
0.2032
 20
-0.254
 30
0.0
 11
0.7111999999999999
 21
-0.254
 31
0.0
 12
0.2032
 22
0.254
 32
0.0
 13
0.7111999999999999
 23
0.254
 33
0.0
  0
ENDBLK
  5
255
330
253
100
AcDbEntity
  8
0
100
AcDbBlockEnd
  0
BLOCK
  5
25A
330
259
100
AcDbEntity
  8
0
100
AcDbBlockBegin
  2
R0402_M_53
 70
     0
 10
0.0
 20
0.0
 30
0.0
  3
R0402_M_53
  1

  0
SOLID
  5
25C
330
259
100
AcDbEntity
  8
TopPaste
100
AcDbTrace
 10
-0.7111999999999999
 20
-0.254
 30
0.0
 11
-0.2032
 21
-0.254
 31
0.0
 12
-0.7111999999999999
 22
0.254
 32
0.0
 13
-0.2032
 23
0.254
 33
0.0
  0
SOLID
  5
25D
330
259
100
AcDbEntity
  8
TopPaste
100
AcDbTrace
 10
0.2032
 20
-0.254
 30
0.0
 11
0.7111999999999999
 21
-0.254
 31
0.0
 12
0.2032
 22
0.254
 32
0.0
 13
0.7111999999999999
 23
0.254
 33
0.0
  0
ENDBLK
  5
25B
330
259
100
AcDbEntity
  8
0
100
AcDbBlockEnd
  0
BLOCK
  5
260
330
25F
100
AcDbEntity
  8
0
100
AcDbBlockBegin
  2
R0402_M_54
 70
     0
 10
0.0
 20
0.0
 30
0.0
  3
R0402_M_54
  1

  0
SOLID
  5
262
330
25F
100
AcDbEntity
  8
TopPaste
100
AcDbTrace
 10
-0.7111999999999999
 20
-0.254
 30
0.0
 11
-0.2032
 21
-0.254
 31
0.0
 12
-0.7111999999999999
 22
0.254
 32
0.0
 13
-0.2032
 23
0.254
 33
0.0
  0
SOLID
  5
263
330
25F
100
AcDbEntity
  8
TopPaste
100
AcDbTrace
 10
0.2032
 20
-0.254
 30
0.0
 11
0.7111999999999999
 21
-0.254
 31
0.0
 12
0.2032
 22
0.254
 32
0.0
 13
0.7111999999999999
 23
0.254
 33
0.0
  0
ENDBLK
  5
261
330
25F
100
AcDbEntity
  8
0
100
AcDbBlockEnd
  0
BLOCK
  5
266
330
265
100
AcDbEntity
  8
0
100
AcDbBlockBegin
  2
R0402_M_55
 70
     0
 10
0.0
 20
0.0
 30
0.0
  3
R0402_M_55
  1

  0
SOLID
  5
268
330
265
100
AcDbEntity
  8
TopPaste
100
AcDbTrace
 10
0.2032
 20
-0.254
 30
0.0
 11
0.7111999999999999
 21
-0.254
 31
0.0
 12
0.2032
 22
0.254
 32
0.0
 13
0.7111999999999999
 23
0.254
 33
0.0
  0
SOLID
  5
269
330
265
100
AcDbEntity
  8
TopPaste
100
AcDbTrace
 10
-0.7111999999999999
 20
-0.254
 30
0.0
 11
-0.2032
 21
-0.254
 31
0.0
 12
-0.7111999999999999
 22
0.254
 32
0.0
 13
-0.2032
 23
0.254
 33
0.0
  0
ENDBLK
  5
267
330
265
100
AcDbEntity
  8
0
100
AcDbBlockEnd
  0
BLOCK
  5
26C
330
26B
100
AcDbEntity
  8
0
100
AcDbBlockBegin
  2
0603_LED_56
 70
     0
 10
0.0
 20
0.0
 30
0.0
  3
0603_LED_56
  1

  0
SOLID
  5
26E
330
26B
100
AcDbEntity
  8
TopPaste
100
AcDbTrace
 10
-0.29440378
 20
-0.4064
 30
0.0
 11
-0.29440378
 21
0.4064
 31
0.0
 12
-1.00560378
 22
-0.4064
 32
0.0
 13
-1.00560378
 23
0.4064
 33
0.0
  0
SOLID
  5
26F
330
26B
100
AcDbEntity
  8
TopPaste
100
AcDbTrace
 10
1.00560124
 20
-0.4064
 30
0.0
 11
1.00560124
 21
0.4064
 31
0.0
 12
0.29440124
 22
-0.4064
 32
0.0
 13
0.29440124
 23
0.4064
 33
0.0
  0
ENDBLK
  5
26D
330
26B
100
AcDbEntity
  8
0
100
AcDbBlockEnd
  0
BLOCK
  5
272
330
271
100
AcDbEntity
  8
0
100
AcDbBlockBegin
  2
DC_050_57
 70
     0
 10
0.0
 20
0.0
 30
0.0
  3
DC_050_57
  1

  0
SOLID
  5
274
330
271
100
AcDbEntity
  8
TopPaste
100
AcDbTrace
 10
6.266500039999999
 20
6.300000099999999
 30
0.0
 11
3.76649996
 21
6.300000099999999
 31
0.0
 12
6.266500039999999
 22
4.29999902
 32
0.0
 13
3.76649996
 23
4.29999902
 33
0.0
  0
SOLID
  5
275
330
271
100
AcDbEntity
  8
TopPaste
100
AcDbTrace
 10
12.36650054
 20
6.300000099999999
 30
0.0
 11
9.86650046
 21
6.300000099999999
 31
0.0
 12
12.36650054
 22
4.29999902
 32
0.0
 13
9.86650046
 23
4.29999902
 33
0.0
  0
SOLID
  5
276
330
271
100
AcDbEntity
  8
TopPaste
100
AcDbTrace
 10
12.3627007
 20
-4.29999902
 30
0.0
 11
9.86270062
 21
-4.29999902
 31
0.0
 12
12.3627007
 22
-6.300000099999999
 32
0.0
 13
9.86270062
 23
-6.300000099999999
 33
0.0
  0
SOLID
  5
277
330
271
100
AcDbEntity
  8
TopPaste
100
AcDbTrace
 10
6.262700199999999
 20
-4.29999902
 30
0.0
 11
3.762700119999999
 21
-4.29999902
 31
0.0
 12
6.262700199999999
 22
-6.300000099999999
 32
0.0
 13
3.762700119999999
 23
-6.300000099999999
 33
0.0
  0
ENDBLK
  5
273
330
271
100
AcDbEntity
  8
0
100
AcDbBlockEnd
  0
BLOCK
  5
27A
330
279
100
AcDbEntity
  8
0
100
AcDbBlockBegin
  2
SOT23_5___58
 70
     0
 10
0.0
 20
0.0
 30
0.0
  3
SOT23_5___58
  1

  0
SOLID
  5
27C
330
279
100
AcDbEntity
  8
TopPaste
100
AcDbTrace
 10
-1.25041914
 20
0.6266078399999999
 30
0.0
 11
-0.64960754
 21
0.6266078399999999
 31
0.0
 12
-1.25041914
 22
1.77740564
 32
0.0
 13
-0.64960754
 23
1.77740564
 33
0.0
  0
SOLID
  5
27D
330
279
100
AcDbEntity
  8
TopPaste
100
AcDbTrace
 10
0.6495770599999999
 20
0.6266078399999999
 30
0.0
 11
1.25038866
 21
0.6266078399999999
 31
0.0
 12
0.6495770599999999
 22
1.77740564
 32
0.0
 13
1.25038866
 23
1.77740564
 33
0.0
  0
SOLID
  5
27E
330
279
100
AcDbEntity
  8
TopPaste
100
AcDbTrace
 10
0.6495846799999999
 20
-1.77740818
 30
0.0
 11
1.25039628
 21
-1.77740818
 31
0.0
 12
0.6495846799999999
 22
-0.6266103799999999
 32
0.0
 13
1.25039628
 23
-0.6266103799999999
 33
0.0
  0
SOLID
  5
27F
330
279
100
AcDbEntity
  8
TopPaste
100
AcDbTrace
 10
-1.2504039
 20
-1.7774031
 30
0.0
 11
-0.6496177
 21
-1.7774031
 31
0.0
 12
-1.2504039
 22
-0.6266053
 32
0.0
 13
-0.6496177
 23
-0.6266053
 33
0.0
  0
SOLID
  5
280
330
279
100
AcDbEntity
  8
TopPaste
100
AcDbTrace
 10
-0.30040072
 20
-1.77740818
 30
0.0
 11
0.30041088
 21
-1.77740818
 31
0.0
 12
-0.30040072
 22
-0.6266103799999999
 32
0.0
 13
0.30041088
 23
-0.6266103799999999
 33
0.0
  0
ENDBLK
  5
27B
330
279
100
AcDbEntity
  8
0
100
AcDbBlockEnd
  0
BLOCK
  5
283
330
282
100
AcDbEntity
  8
0
100
AcDbBlockBegin
  2
R0402_M_59
 70
     0
 10
0.0
 20
0.0
 30
0.0
  3
R0402_M_59
  1

  0
SOLID
  5
285
330
282
100
AcDbEntity
  8
TopPaste
100
AcDbTrace
 10
-0.7111999999999999
 20
-0.254
 30
0.0
 11
-0.2032
 21
-0.254
 31
0.0
 12
-0.7111999999999999
 22
0.254
 32
0.0
 13
-0.2032
 23
0.254
 33
0.0
  0
SOLID
  5
286
330
282
100
AcDbEntity
  8
TopPaste
100
AcDbTrace
 10
0.2032
 20
-0.254
 30
0.0
 11
0.7111999999999999
 21
-0.254
 31
0.0
 12
0.2032
 22
0.254
 32
0.0
 13
0.7111999999999999
 23
0.254
 33
0.0
  0
ENDBLK
  5
284
330
282
100
AcDbEntity
  8
0
100
AcDbBlockEnd
  0
BLOCK
  5
289
330
288
100
AcDbEntity
  8
0
100
AcDbBlockBegin
  2
R0402_M_60
 70
     0
 10
0.0
 20
0.0
 30
0.0
  3
R0402_M_60
  1

  0
SOLID
  5
28B
330
288
100
AcDbEntity
  8
TopPaste
100
AcDbTrace
 10
-0.7111999999999999
 20
-0.254
 30
0.0
 11
-0.2032
 21
-0.254
 31
0.0
 12
-0.7111999999999999
 22
0.254
 32
0.0
 13
-0.2032
 23
0.254
 33
0.0
  0
SOLID
  5
28C
330
288
100
AcDbEntity
  8
TopPaste
100
AcDbTrace
 10
0.2032
 20
-0.254
 30
0.0
 11
0.7111999999999999
 21
-0.254
 31
0.0
 12
0.2032
 22
0.254
 32
0.0
 13
0.7111999999999999
 23
0.254
 33
0.0
  0
ENDBLK
  5
28A
330
288
100
AcDbEntity
  8
0
100
AcDbBlockEnd
  0
BLOCK
  5
28F
330
28E
100
AcDbEntity
  8
0
100
AcDbBlockBegin
  2
SOT_23_3_61
 70
     0
 10
0.0
 20
0.0
 30
0.0
  3
SOT_23_3_61
  1

  0
SOLID
  5
291
330
28E
100
AcDbEntity
  8
TopPaste
100
AcDbTrace
 10
1.6893667
 20
-0.29440886
 30
0.0
 11
1.6893667
 21
0.3055899399999999
 31
0.0
 12
0.5393817
 22
-0.29440886
 32
0.0
 13
0.5393817
 23
0.3055899399999999
 33
0.0
  0
SOLID
  5
292
330
28E
100
AcDbEntity
  8
TopPaste
100
AcDbTrace
 10
-0.5606161
 20
-1.24438918
 30
0.0
 11
-0.5606161
 21
-0.6443903799999999
 31
0.0
 12
-1.7106011
 22
-1.24438918
 32
0.0
 13
-1.7106011
 23
-0.6443903799999999
 33
0.0
  0
SOLID
  5
293
330
28E
100
AcDbEntity
  8
TopPaste
100
AcDbTrace
 10
-0.56061356
 20
0.6555993999999999
 30
0.0
 11
-0.56061356
 21
1.2555982
 31
0.0
 12
-1.71059856
 22
0.6555993999999999
 32
0.0
 13
-1.71059856
 23
1.2555982
 33
0.0
  0
ENDBLK
  5
290
330
28E
100
AcDbEntity
  8
0
100
AcDbBlockEnd
  0
BLOCK
  5
296
330
295
100
AcDbEntity
  8
0
100
AcDbBlockBegin
  2
SOD123_FL_62
 70
     0
 10
0.0
 20
0.0
 30
0.0
  3
SOD123_FL_62
  1

  0
SOLID
  5
298
330
295
100
AcDbEntity
  8
TopPaste
100
AcDbTrace
 10
0.60999878
 20
-0.60999878
 30
0.0
 11
0.60999878
 21
0.60999878
 31
0.0
 12
-0.60999878
 22
-0.60999878
 32
0.0
 13
-0.60999878
 23
0.60999878
 33
0.0
  0
SOLID
  5
299
330
295
100
AcDbEntity
  8
TopPaste
100
AcDbTrace
 10
3.70999766
 20
-0.60999878
 30
0.0
 11
3.70999766
 21
0.60999878
 31
0.0
 12
2.4900001
 22
-0.60999878
 32
0.0
 13
2.4900001
 23
0.60999878
 33
0.0
  0
ENDBLK
  5
297
330
295
100
AcDbEntity
  8
0
100
AcDbBlockEnd
  0
BLOCK
  5
29C
330
29B
100
AcDbEntity
  8
0
100
AcDbBlockBegin
  2
C0402_M_63
 70
     0
 10
0.0
 20
0.0
 30
0.0
  3
C0402_M_63
  1

  0
SOLID
  5
29E
330
29B
100
AcDbEntity
  8
TopPaste
100
AcDbTrace
 10
0.2032
 20
-0.254
 30
0.0
 11
0.7111999999999999
 21
-0.254
 31
0.0
 12
0.2032
 22
0.254
 32
0.0
 13
0.7111999999999999
 23
0.254
 33
0.0
  0
SOLID
  5
29F
330
29B
100
AcDbEntity
  8
TopPaste
100
AcDbTrace
 10
-0.7111999999999999
 20
-0.254
 30
0.0
 11
-0.2032
 21
-0.254
 31
0.0
 12
-0.7111999999999999
 22
0.254
 32
0.0
 13
-0.2032
 23
0.254
 33
0.0
  0
ENDBLK
  5
29D
330
29B
100
AcDbEntity
  8
0
100
AcDbBlockEnd
  0
BLOCK
  5
2A2
330
2A1
100
AcDbEntity
  8
0
100
AcDbBlockBegin
  2
C0402_M_64
 70
     0
 10
0.0
 20
0.0
 30
0.0
  3
C0402_M_64
  1

  0
SOLID
  5
2A4
330
2A1
100
AcDbEntity
  8
TopPaste
100
AcDbTrace
 10
0.2032
 20
-0.254
 30
0.0
 11
0.7111999999999999
 21
-0.254
 31
0.0
 12
0.2032
 22
0.254
 32
0.0
 13
0.7111999999999999
 23
0.254
 33
0.0
  0
SOLID
  5
2A5
330
2A1
100
AcDbEntity
  8
TopPaste
100
AcDbTrace
 10
-0.7111999999999999
 20
-0.254
 30
0.0
 11
-0.2032
 21
-0.254
 31
0.0
 12
-0.7111999999999999
 22
0.254
 32
0.0
 13
-0.2032
 23
0.254
 33
0.0
  0
ENDBLK
  5
2A3
330
2A1
100
AcDbEntity
  8
0
100
AcDbBlockEnd
  0
BLOCK
  5
2A8
330
2A7
100
AcDbEntity
  8
0
100
AcDbBlockBegin
  2
C0603_M_65
 70
     0
 10
0.0
 20
0.0
 30
0.0
  3
C0603_M_65
  1

  0
SOLID
  5
2AA
330
2A7
100
AcDbEntity
  8
TopPaste
100
AcDbTrace
 10
1.65560248
 20
-0.4064
 30
0.0
 11
1.65560248
 21
0.4064
 31
0.0
 12
0.9444024799999999
 22
-0.4064
 32
0.0
 13
0.9444024799999999
 23
0.4064
 33
0.0
  0
SOLID
  5
2AB
330
2A7
100
AcDbEntity
  8
TopPaste
100
AcDbTrace
 10
0.3556
 20
-0.4064
 30
0.0
 11
0.3556
 21
0.4064
 31
0.0
 12
-0.3556
 22
-0.4064
 32
0.0
 13
-0.3556
 23
0.4064
 33
0.0
  0
ENDBLK
  5
2A9
330
2A7
100
AcDbEntity
  8
0
100
AcDbBlockEnd
  0
BLOCK
  5
2AE
330
2AD
100
AcDbEntity
  8
0
100
AcDbBlockBegin
  2
SOT_89_A_66
 70
     0
 10
0.0
 20
0.0
 30
0.0
  3
SOT_89_A_66
  1

  0
SOLID
  5
2B0
330
2AD
100
AcDbEntity
  8
TopPaste
100
AcDbTrace
 10
-0.77499972
 20
-1.87500006
 30
0.0
 11
-0.77499972
 21
-1.12499902
 31
0.0
 12
-2.42499896
 22
-1.87500006
 32
0.0
 13
-2.42499896
 23
-1.12499902
 33
0.0
  0
SOLID
  5
2B1
330
2AD
100
AcDbEntity
  8
TopPaste
100
AcDbTrace
 10
-0.77499718
 20
-0.37500052
 30
0.0
 11
-0.77499718
 21
0.37500052
 31
0.0
 12
-2.42499642
 22
-0.37500052
 32
0.0
 13
-2.42499642
 23
0.37500052
 33
0.0
  0
SOLID
  5
2B2
330
2AD
100
AcDbEntity
  8
TopPaste
100
AcDbTrace
 10
-0.77499972
 20
1.12499902
 30
0.0
 11
-0.77499972
 21
1.87500006
 31
0.0
 12
-2.42499896
 22
1.12499902
 32
0.0
 13
-2.42499896
 23
1.87500006
 33
0.0
  0
SOLID
  5
2B3
330
2AD
100
AcDbEntity
  8
TopPaste
100
AcDbTrace
 10
2.30000048
 20
-0.7499985
 30
0.0
 11
2.30000048
 21
0.7499985
 31
0.0
 12
0.80000348
 22
-0.7499985
 32
0.0
 13
0.80000348
 23
0.7499985
 33
0.0
  0
ENDBLK
  5
2AF
330
2AD
100
AcDbEntity
  8
0
100
AcDbBlockEnd
  0
BLOCK
  5
2B6
330
2B5
100
AcDbEntity
  8
0
100
AcDbBlockBegin
  2
R0402_M_67
 70
     0
 10
0.0
 20
0.0
 30
0.0
  3
R0402_M_67
  1

  0
SOLID
  5
2B8
330
2B5
100
AcDbEntity
  8
TopPaste
100
AcDbTrace
 10
-0.7111999999999999
 20
-0.254
 30
0.0
 11
-0.2032
 21
-0.254
 31
0.0
 12
-0.7111999999999999
 22
0.254
 32
0.0
 13
-0.2032
 23
0.254
 33
0.0
  0
SOLID
  5
2B9
330
2B5
100
AcDbEntity
  8
TopPaste
100
AcDbTrace
 10
0.2032
 20
-0.254
 30
0.0
 11
0.7111999999999999
 21
-0.254
 31
0.0
 12
0.2032
 22
0.254
 32
0.0
 13
0.7111999999999999
 23
0.254
 33
0.0
  0
ENDBLK
  5
2B7
330
2B5
100
AcDbEntity
  8
0
100
AcDbBlockEnd
  0
BLOCK
  5
2BC
330
2BB
100
AcDbEntity
  8
0
100
AcDbBlockBegin
  2
R0402_M_68
 70
     0
 10
0.0
 20
0.0
 30
0.0
  3
R0402_M_68
  1

  0
SOLID
  5
2BE
330
2BB
100
AcDbEntity
  8
TopPaste
100
AcDbTrace
 10
-0.7111999999999999
 20
-0.254
 30
0.0
 11
-0.2032
 21
-0.254
 31
0.0
 12
-0.7111999999999999
 22
0.254
 32
0.0
 13
-0.2032
 23
0.254
 33
0.0
  0
SOLID
  5
2BF
330
2BB
100
AcDbEntity
  8
TopPaste
100
AcDbTrace
 10
0.2032
 20
-0.254
 30
0.0
 11
0.7111999999999999
 21
-0.254
 31
0.0
 12
0.2032
 22
0.254
 32
0.0
 13
0.7111999999999999
 23
0.254
 33
0.0
  0
ENDBLK
  5
2BD
330
2BB
100
AcDbEntity
  8
0
100
AcDbBlockEnd
  0
BLOCK
  5
2C2
330
2C1
100
AcDbEntity
  8
0
100
AcDbBlockBegin
  2
ESP_32S_MODULE_69
 70
     0
 10
0.0
 20
0.0
 30
0.0
  3
ESP_32S_MODULE_69
  1

  0
SOLID
  5
2C4
330
2C1
100
AcDbEntity
  8
TopPaste
100
AcDbTrace
 10
-9.849998079999999
 20
-7.949996799999999
 30
0.0
 11
-8.150001479999998
 21
-7.949996799999999
 31
0.0
 12
-9.849998079999999
 22
-7.049998599999999
 32
0.0
 13
-8.150001479999998
 23
-7.049998599999999
 33
0.0
  0
SOLID
  5
2C5
330
2C1
100
AcDbEntity
  8
TopPaste
100
AcDbTrace
 10
-9.849998079999999
 20
-6.6799968
 30
0.0
 11
-8.150001479999998
 21
-6.6799968
 31
0.0
 12
-9.849998079999999
 22
-5.7799986
 32
0.0
 13
-8.150001479999998
 23
-5.7799986
 33
0.0
  0
SOLID
  5
2C6
330
2C1
100
AcDbEntity
  8
TopPaste
100
AcDbTrace
 10
-9.849998079999999
 20
-5.409996799999999
 30
0.0
 11
-8.150001479999998
 21
-5.409996799999999
 31
0.0
 12
-9.849998079999999
 22
-4.509998599999999
 32
0.0
 13
-8.150001479999998
 23
-4.509998599999999
 33
0.0
  0
SOLID
  5
2C7
330
2C1
100
AcDbEntity
  8
TopPaste
100
AcDbTrace
 10
-9.849998079999999
 20
-4.1399968
 30
0.0
 11
-8.150001479999998
 21
-4.1399968
 31
0.0
 12
-9.849998079999999
 22
-3.2399986
 32
0.0
 13
-8.150001479999998
 23
-3.2399986
 33
0.0
  0
SOLID
  5
2C8
330
2C1
100
AcDbEntity
  8
TopPaste
100
AcDbTrace
 10
-9.849998079999999
 20
-2.8699968
 30
0.0
 11
-8.150001479999998
 21
-2.8699968
 31
0.0
 12
-9.849998079999999
 22
-1.9699986
 32
0.0
 13
-8.150001479999998
 23
-1.9699986
 33
0.0
  0
SOLID
  5
2C9
330
2C1
100
AcDbEntity
  8
TopPaste
100
AcDbTrace
 10
-9.849998079999999
 20
-1.5999968
 30
0.0
 11
-8.150001479999998
 21
-1.5999968
 31
0.0
 12
-9.849998079999999
 22
-0.6999985999999999
 32
0.0
 13
-8.150001479999998
 23
-0.6999985999999999
 33
0.0
  0
SOLID
  5
2CA
330
2C1
100
AcDbEntity
  8
TopPaste
100
AcDbTrace
 10
-9.849998079999999
 20
-0.3299968
 30
0.0
 11
-8.150001479999998
 21
-0.3299968
 31
0.0
 12
-9.849998079999999
 22
0.5700014
 32
0.0
 13
-8.150001479999998
 23
0.5700014
 33
0.0
  0
SOLID
  5
2CB
330
2C1
100
AcDbEntity
  8
TopPaste
100
AcDbTrace
 10
-9.849998079999999
 20
0.9400031999999999
 30
0.0
 11
-8.150001479999998
 21
0.9400031999999999
 31
0.0
 12
-9.849998079999999
 22
1.8400014
 32
0.0
 13
-8.150001479999998
 23
1.8400014
 33
0.0
  0
SOLID
  5
2CC
330
2C1
100
AcDbEntity
  8
TopPaste
100
AcDbTrace
 10
-9.849998079999999
 20
2.2100032
 30
0.0
 11
-8.150001479999998
 21
2.2100032
 31
0.0
 12
-9.849998079999999
 22
3.1100014
 32
0.0
 13
-8.150001479999998
 23
3.1100014
 33
0.0
  0
SOLID
  5
2CD
330
2C1
100
AcDbEntity
  8
TopPaste
100
AcDbTrace
 10
-9.849998079999999
 20
3.4800032
 30
0.0
 11
-8.150001479999998
 21
3.4800032
 31
0.0
 12
-9.849998079999999
 22
4.3800014
 32
0.0
 13
-8.150001479999998
 23
4.3800014
 33
0.0
  0
SOLID
  5
2CE
330
2C1
100
AcDbEntity
  8
TopPaste
100
AcDbTrace
 10
-9.849998079999999
 20
4.7500032
 30
0.0
 11
-8.150001479999998
 21
4.7500032
 31
0.0
 12
-9.849998079999999
 22
5.6500014
 32
0.0
 13
-8.150001479999998
 23
5.6500014
 33
0.0
  0
SOLID
  5
2CF
330
2C1
100
AcDbEntity
  8
TopPaste
100
AcDbTrace
 10
-9.849998079999999
 20
6.0200032
 30
0.0
 11
-8.150001479999998
 21
6.0200032
 31
0.0
 12
-9.849998079999999
 22
6.920001399999999
 32
0.0
 13
-8.150001479999998
 23
6.920001399999999
 33
0.0
  0
SOLID
  5
2D0
330
2C1
100
AcDbEntity
  8
TopPaste
100
AcDbTrace
 10
-9.849998079999999
 20
7.290003199999999
 30
0.0
 11
-8.150001479999998
 21
7.290003199999999
 31
0.0
 12
-9.849998079999999
 22
8.190001399999998
 32
0.0
 13
-8.150001479999998
 23
8.190001399999998
 33
0.0
  0
SOLID
  5
2D1
330
2C1
100
AcDbEntity
  8
TopPaste
100
AcDbTrace
 10
-9.849998079999999
 20
8.560003199999999
 30
0.0
 11
-8.150001479999998
 21
8.560003199999999
 31
0.0
 12
-9.849998079999999
 22
9.4600014
 32
0.0
 13
-8.150001479999998
 23
9.4600014
 33
0.0
  0
SOLID
  5
2D2
330
2C1
100
AcDbEntity
  8
TopPaste
100
AcDbTrace
 10
-5.25999964
 20
-9.85999552
 30
0.0
 11
-5.25999964
 21
-8.15999892
 31
0.0
 12
-6.15999784
 22
-9.85999552
 32
0.0
 13
-6.15999784
 23
-8.15999892
 33
0.0
  0
SOLID
  5
2D3
330
2C1
100
AcDbEntity
  8
TopPaste
100
AcDbTrace
 10
-3.98999964
 20
-9.85999552
 30
0.0
 11
-3.98999964
 21
-8.15999892
 31
0.0
 12
-4.88999784
 22
-9.85999552
 32
0.0
 13
-4.88999784
 23
-8.15999892
 33
0.0
  0
SOLID
  5
2D4
330
2C1
100
AcDbEntity
  8
TopPaste
100
AcDbTrace
 10
-2.71999964
 20
-9.85999552
 30
0.0
 11
-2.71999964
 21
-8.15999892
 31
0.0
 12
-3.61999784
 22
-9.85999552
 32
0.0
 13
-3.61999784
 23
-8.15999892
 33
0.0
  0
SOLID
  5
2D5
330
2C1
100
AcDbEntity
  8
TopPaste
100
AcDbTrace
 10
-1.44999964
 20
-9.85999552
 30
0.0
 11
-1.44999964
 21
-8.15999892
 31
0.0
 12
-2.34999784
 22
-9.85999552
 32
0.0
 13
-2.34999784
 23
-8.15999892
 33
0.0
  0
SOLID
  5
2D6
330
2C1
100
AcDbEntity
  8
TopPaste
100
AcDbTrace
 10
-0.17999964
 20
-9.85999552
 30
0.0
 11
-0.17999964
 21
-8.15999892
 31
0.0
 12
-1.07999784
 22
-9.85999552
 32
0.0
 13
-1.07999784
 23
-8.15999892
 33
0.0
  0
SOLID
  5
2D7
330
2C1
100
AcDbEntity
  8
TopPaste
100
AcDbTrace
 10
1.09000036
 20
-9.85999552
 30
0.0
 11
1.09000036
 21
-8.15999892
 31
0.0
 12
0.19000216
 22
-9.85999552
 32
0.0
 13
0.19000216
 23
-8.15999892
 33
0.0
  0
SOLID
  5
2D8
330
2C1
100
AcDbEntity
  8
TopPaste
100
AcDbTrace
 10
2.36000036
 20
-9.85999552
 30
0.0
 11
2.36000036
 21
-8.15999892
 31
0.0
 12
1.46000216
 22
-9.85999552
 32
0.0
 13
1.46000216
 23
-8.15999892
 33
0.0
  0
SOLID
  5
2D9
330
2C1
100
AcDbEntity
  8
TopPaste
100
AcDbTrace
 10
3.630000359999999
 20
-9.85999552
 30
0.0
 11
3.630000359999999
 21
-8.15999892
 31
0.0
 12
2.73000216
 22
-9.85999552
 32
0.0
 13
2.73000216
 23
-8.15999892
 33
0.0
  0
SOLID
  5
2DA
330
2C1
100
AcDbEntity
  8
TopPaste
100
AcDbTrace
 10
4.90000036
 20
-9.85999552
 30
0.0
 11
4.90000036
 21
-8.15999892
 31
0.0
 12
4.000002159999999
 22
-9.85999552
 32
0.0
 13
4.000002159999999
 23
-8.15999892
 33
0.0
  0
SOLID
  5
2DB
330
2C1
100
AcDbEntity
  8
TopPaste
100
AcDbTrace
 10
6.17000036
 20
-9.85999552
 30
0.0
 11
6.17000036
 21
-8.15999892
 31
0.0
 12
5.27000216
 22
-9.85999552
 32
0.0
 13
5.27000216
 23
-8.15999892
 33
0.0
  0
SOLID
  5
2DC
330
2C1
100
AcDbEntity
  8
TopPaste
100
AcDbTrace
 10
8.150001479999998
 20
8.560003199999999
 30
0.0
 11
9.849998079999999
 21
8.560003199999999
 31
0.0
 12
8.150001479999998
 22
9.4600014
 32
0.0
 13
9.849998079999999
 23
9.4600014
 33
0.0
  0
SOLID
  5
2DD
330
2C1
100
AcDbEntity
  8
TopPaste
100
AcDbTrace
 10
8.150001479999998
 20
7.290003199999999
 30
0.0
 11
9.849998079999999
 21
7.290003199999999
 31
0.0
 12
8.150001479999998
 22
8.190001399999998
 32
0.0
 13
9.849998079999999
 23
8.190001399999998
 33
0.0
  0
SOLID
  5
2DE
330
2C1
100
AcDbEntity
  8
TopPaste
100
AcDbTrace
 10
8.150001479999998
 20
6.0200032
 30
0.0
 11
9.849998079999999
 21
6.0200032
 31
0.0
 12
8.150001479999998
 22
6.920001399999999
 32
0.0
 13
9.849998079999999
 23
6.920001399999999
 33
0.0
  0
SOLID
  5
2DF
330
2C1
100
AcDbEntity
  8
TopPaste
100
AcDbTrace
 10
8.150001479999998
 20
4.7500032
 30
0.0
 11
9.849998079999999
 21
4.7500032
 31
0.0
 12
8.150001479999998
 22
5.6500014
 32
0.0
 13
9.849998079999999
 23
5.6500014
 33
0.0
  0
SOLID
  5
2E0
330
2C1
100
AcDbEntity
  8
TopPaste
100
AcDbTrace
 10
8.150001479999998
 20
3.4800032
 30
0.0
 11
9.849998079999999
 21
3.4800032
 31
0.0
 12
8.150001479999998
 22
4.3800014
 32
0.0
 13
9.849998079999999
 23
4.3800014
 33
0.0
  0
SOLID
  5
2E1
330
2C1
100
AcDbEntity
  8
TopPaste
100
AcDbTrace
 10
8.150001479999998
 20
2.2100032
 30
0.0
 11
9.849998079999999
 21
2.2100032
 31
0.0
 12
8.150001479999998
 22
3.1100014
 32
0.0
 13
9.849998079999999
 23
3.1100014
 33
0.0
  0
SOLID
  5
2E2
330
2C1
100
AcDbEntity
  8
TopPaste
100
AcDbTrace
 10
8.150001479999998
 20
0.9400031999999999
 30
0.0
 11
9.849998079999999
 21
0.9400031999999999
 31
0.0
 12
8.150001479999998
 22
1.8400014
 32
0.0
 13
9.849998079999999
 23
1.8400014
 33
0.0
  0
SOLID
  5
2E3
330
2C1
100
AcDbEntity
  8
TopPaste
100
AcDbTrace
 10
8.150001479999998
 20
-0.3299968
 30
0.0
 11
9.849998079999999
 21
-0.3299968
 31
0.0
 12
8.150001479999998
 22
0.5700014
 32
0.0
 13
9.849998079999999
 23
0.5700014
 33
0.0
  0
SOLID
  5
2E4
330
2C1
100
AcDbEntity
  8
TopPaste
100
AcDbTrace
 10
8.150001479999998
 20
-1.5999968
 30
0.0
 11
9.849998079999999
 21
-1.5999968
 31
0.0
 12
8.150001479999998
 22
-0.6999985999999999
 32
0.0
 13
9.849998079999999
 23
-0.6999985999999999
 33
0.0
  0
SOLID
  5
2E5
330
2C1
100
AcDbEntity
  8
TopPaste
100
AcDbTrace
 10
8.150001479999998
 20
-2.8699968
 30
0.0
 11
9.849998079999999
 21
-2.8699968
 31
0.0
 12
8.150001479999998
 22
-1.9699986
 32
0.0
 13
9.849998079999999
 23
-1.9699986
 33
0.0
  0
SOLID
  5
2E6
330
2C1
100
AcDbEntity
  8
TopPaste
100
AcDbTrace
 10
8.150001479999998
 20
-4.1399968
 30
0.0
 11
9.849998079999999
 21
-4.1399968
 31
0.0
 12
8.150001479999998
 22
-3.2399986
 32
0.0
 13
9.849998079999999
 23
-3.2399986
 33
0.0
  0
SOLID
  5
2E7
330
2C1
100
AcDbEntity
  8
TopPaste
100
AcDbTrace
 10
8.150001479999998
 20
-5.409996799999999
 30
0.0
 11
9.849998079999999
 21
-5.409996799999999
 31
0.0
 12
8.150001479999998
 22
-4.509998599999999
 32
0.0
 13
9.849998079999999
 23
-4.509998599999999
 33
0.0
  0
SOLID
  5
2E8
330
2C1
100
AcDbEntity
  8
TopPaste
100
AcDbTrace
 10
8.150001479999998
 20
-6.6799968
 30
0.0
 11
9.849998079999999
 21
-6.6799968
 31
0.0
 12
8.150001479999998
 22
-5.7799986
 32
0.0
 13
9.849998079999999
 23
-5.7799986
 33
0.0
  0
SOLID
  5
2E9
330
2C1
100
AcDbEntity
  8
TopPaste
100
AcDbTrace
 10
8.150001479999998
 20
-7.949996799999999
 30
0.0
 11
9.849998079999999
 21
-7.949996799999999
 31
0.0
 12
8.150001479999998
 22
-7.049998599999999
 32
0.0
 13
9.849998079999999
 23
-7.049998599999999
 33
0.0
  0
SOLID
  5
2EA
330
2C1
100
AcDbEntity
  8
TopPaste
100
AcDbTrace
 10
1.57000194
 20
-0.57999884
 30
0.0
 11
1.57000194
 21
3.92000232
 31
0.0
 12
-2.92999922
 22
-0.57999884
 32
0.0
 13
-2.92999922
 23
3.92000232
 33
0.0
  0
ENDBLK
  5
2C3
330
2C1
100
AcDbEntity
  8
0
100
AcDbBlockEnd
  0
BLOCK
  5
2ED
330
2EC
100
AcDbEntity
  8
0
100
AcDbBlockBegin
  2
C0805_M_70
 70
     0
 10
0.0
 20
0.0
 30
0.0
  3
C0805_M_70
  1

  0
SOLID
  5
2EF
330
2EC
100
AcDbEntity
  8
TopPaste
100
AcDbTrace
 10
-0.093599
 20
-0.635
 30
0.0
 11
0.906399
 21
-0.635
 31
0.0
 12
-0.093599
 22
0.635
 32
0.0
 13
0.906399
 23
0.635
 33
0.0
  0
SOLID
  5
2F0
330
2EC
100
AcDbEntity
  8
TopPaste
100
AcDbTrace
 10
1.659001
 20
-0.635
 30
0.0
 11
2.658999
 21
-0.635
 31
0.0
 12
1.659001
 22
0.635
 32
0.0
 13
2.658999
 23
0.635
 33
0.0
  0
ENDBLK
  5
2EE
330
2EC
100
AcDbEntity
  8
0
100
AcDbBlockEnd
  0
BLOCK
  5
2F3
330
2F2
100
AcDbEntity
  8
0
100
AcDbBlockBegin
  2
C0805_M_71
 70
     0
 10
0.0
 20
0.0
 30
0.0
  3
C0805_M_71
  1

  0
SOLID
  5
2F5
330
2F2
100
AcDbEntity
  8
TopPaste
100
AcDbTrace
 10
-0.093599
 20
-0.635
 30
0.0
 11
0.906399
 21
-0.635
 31
0.0
 12
-0.093599
 22
0.635
 32
0.0
 13
0.906399
 23
0.635
 33
0.0
  0
SOLID
  5
2F6
330
2F2
100
AcDbEntity
  8
TopPaste
100
AcDbTrace
 10
1.659001
 20
-0.635
 30
0.0
 11
2.658999
 21
-0.635
 31
0.0
 12
1.659001
 22
0.635
 32
0.0
 13
2.658999
 23
0.635
 33
0.0
  0
ENDBLK
  5
2F4
330
2F2
100
AcDbEntity
  8
0
100
AcDbBlockEnd
  0
BLOCK
  5
2F9
330
2F8
100
AcDbEntity
  8
0
100
AcDbBlockBegin
  2
SOT_23_3_72
 70
     0
 10
0.0
 20
0.0
 30
0.0
  3
SOT_23_3_72
  1

  0
SOLID
  5
2FB
330
2F8
100
AcDbEntity
  8
TopPaste
100
AcDbTrace
 10
1.6893667
 20
-0.29440886
 30
0.0
 11
1.6893667
 21
0.3055899399999999
 31
0.0
 12
0.5393817
 22
-0.29440886
 32
0.0
 13
0.5393817
 23
0.3055899399999999
 33
0.0
  0
SOLID
  5
2FC
330
2F8
100
AcDbEntity
  8
TopPaste
100
AcDbTrace
 10
-0.5606161
 20
-1.24438918
 30
0.0
 11
-0.5606161
 21
-0.6443903799999999
 31
0.0
 12
-1.7106011
 22
-1.24438918
 32
0.0
 13
-1.7106011
 23
-0.6443903799999999
 33
0.0
  0
SOLID
  5
2FD
330
2F8
100
AcDbEntity
  8
TopPaste
100
AcDbTrace
 10
-0.56061356
 20
0.6555993999999999
 30
0.0
 11
-0.56061356
 21
1.2555982
 31
0.0
 12
-1.71059856
 22
0.6555993999999999
 32
0.0
 13
-1.71059856
 23
1.2555982
 33
0.0
  0
ENDBLK
  5
2FA
330
2F8
100
AcDbEntity
  8
0
100
AcDbBlockEnd
  0
BLOCK
  5
300
330
2FF
100
AcDbEntity
  8
0
100
AcDbBlockBegin
  2
MSM261S4030H0_73
 70
     0
 10
0.0
 20
0.0
 30
0.0
  3
MSM261S4030H0_73
  1

  0
SOLID
  5
302
330
2FF
100
AcDbEntity
  8
TopPaste
100
AcDbTrace
 10
-1.0619994
 20
0.3175
 30
0.0
 11
-1.0619994
 21
-0.3175
 31
0.0
 12
0.4620006
 22
0.3175
 32
0.0
 13
0.4620006
 23
-0.3175
 33
0.0
  0
SOLID
  5
303
330
2FF
100
AcDbEntity
  8
TopPaste
100
AcDbTrace
 10
0.4620006
 20
-1.31750054
 30
0.0
 11
0.4620006
 21
-0.6825005399999999
 31
0.0
 12
-1.0619994
 22
-1.31750054
 32
0.0
 13
-1.0619994
 23
-0.6825005399999999
 33
0.0
  0
SOLID
  5
304
330
2FF
100
AcDbEntity
  8
TopPaste
100
AcDbTrace
 10
0.4620006
 20
-2.31750108
 30
0.0
 11
0.4620006
 21
-1.68250108
 31
0.0
 12
-1.0619994
 22
-2.31750108
 32
0.0
 13
-1.0619994
 23
-1.68250108
 33
0.0
  0
SOLID
  5
305
330
2FF
100
AcDbEntity
  8
TopPaste
100
AcDbTrace
 10
0.4620006
 20
-3.31749908
 30
0.0
 11
0.4620006
 21
-2.68249908
 31
0.0
 12
-1.0619994
 22
-3.31749908
 32
0.0
 13
-1.0619994
 23
-2.68249908
 33
0.0
  0
SOLID
  5
306
330
2FF
100
AcDbEntity
  8
TopPaste
100
AcDbTrace
 10
2.96200068
 20
-3.31749908
 30
0.0
 11
2.96200068
 21
-2.68249908
 31
0.0
 12
1.43800068
 22
-3.31749908
 32
0.0
 13
1.43800068
 23
-2.68249908
 33
0.0
  0
SOLID
  5
307
330
2FF
100
AcDbEntity
  8
TopPaste
100
AcDbTrace
 10
2.96200068
 20
-2.31750108
 30
0.0
 11
2.96200068
 21
-1.68250108
 31
0.0
 12
1.43800068
 22
-2.31750108
 32
0.0
 13
1.43800068
 23
-1.68250108
 33
0.0
  0
SOLID
  5
308
330
2FF
100
AcDbEntity
  8
TopPaste
100
AcDbTrace
 10
2.96200068
 20
-1.31750054
 30
0.0
 11
2.96200068
 21
-0.6825005399999999
 31
0.0
 12
1.43800068
 22
-1.31750054
 32
0.0
 13
1.43800068
 23
-0.6825005399999999
 33
0.0
  0
SOLID
  5
309
330
2FF
100
AcDbEntity
  8
TopPaste
100
AcDbTrace
 10
2.96200068
 20
-0.3175
 30
0.0
 11
2.96200068
 21
0.3175
 31
0.0
 12
1.43800068
 22
-0.3175
 32
0.0
 13
1.43800068
 23
0.3175
 33
0.0
  0
ENDBLK
  5
301
330
2FF
100
AcDbEntity
  8
0
100
AcDbBlockEnd
  0
BLOCK
  5
30C
330
30B
100
AcDbEntity
  8
0
100
AcDbBlockBegin
  2
SO_8N_74
 70
     0
 10
0.0
 20
0.0
 30
0.0
  3
SO_8N_74
  1

  0
LWPOLYLINE
  5
30E
330
30B
100
AcDbEntity
  8
TopPaste
100
AcDbPolyline
 90
        2
 70
     0
 43
0.5500115999999999
 10
0.4449953
 20
-1.2800076
 10
-0.4449953
 20
-1.2800076
  0
LWPOLYLINE
  5
30F
330
30B
100
AcDbEntity
  8
TopPaste
100
AcDbPolyline
 90
        2
 70
     1
 43
0.2750058
 10
0.3074924
 20
-1.2800076
 42
1.0
 10
0.5824982
 20
-1.2800076
 42
1.0
  0
LWPOLYLINE
  5
310
330
30B
100
AcDbEntity
  8
TopPaste
100
AcDbPolyline
 90
        2
 70
     1
 43
0.2750058
 10
-0.5824982
 20
-1.2800076
 42
1.0
 10
-0.3074924
 20
-1.2800076
 42
1.0
  0
SOLID
  5
311
330
30B
100
AcDbEntity
  8
TopPaste
100
AcDbTrace
 10
-0.7200011
 20
-0.2750058
 30
0.0
 11
0.7200011
 21
-0.2750058
 31
0.0
 12
-0.7200011
 22
0.2750058
 32
0.0
 13
0.7200011
 23
0.2750058
 33
0.0
  0
LWPOLYLINE
  5
312
330
30B
100
AcDbEntity
  8
TopPaste
100
AcDbPolyline
 90
        2
 70
     0
 43
0.5500115999999999
 10
0.4449953
 20
-2.5599898
 10
-0.4449953
 20
-2.5599898
  0
LWPOLYLINE
  5
313
330
30B
100
AcDbEntity
  8
TopPaste
100
AcDbPolyline
 90
        2
 70
     1
 43
0.2750058
 10
0.3074924
 20
-2.5599898
 42
1.0
 10
0.5824982
 20
-2.5599898
 42
1.0
  0
LWPOLYLINE
  5
314
330
30B
100
AcDbEntity
  8
TopPaste
100
AcDbPolyline
 90
        2
 70
     1
 43
0.2750058
 10
-0.5824982
 20
-2.5599898
 42
1.0
 10
-0.3074924
 20
-2.5599898
 42
1.0
  0
LWPOLYLINE
  5
315
330
30B
100
AcDbEntity
  8
TopPaste
100
AcDbPolyline
 90
        2
 70
     0
 43
0.5500115999999999
 10
0.4449953
 20
-3.8399974
 10
-0.4449953
 20
-3.8399974
  0
LWPOLYLINE
  5
316
330
30B
100
AcDbEntity
  8
TopPaste
100
AcDbPolyline
 90
        2
 70
     1
 43
0.2750058
 10
0.3074924
 20
-3.8399974
 42
1.0
 10
0.5824982
 20
-3.8399974
 42
1.0
  0
LWPOLYLINE
  5
317
330
30B
100
AcDbEntity
  8
TopPaste
100
AcDbPolyline
 90
        2
 70
     1
 43
0.2750058
 10
-0.5824982
 20
-3.8399974
 42
1.0
 10
-0.3074924
 20
-3.8399974
 42
1.0
  0
LWPOLYLINE
  5
318
330
30B
100
AcDbEntity
  8
TopPaste
100
AcDbPolyline
 90
        2
 70
     0
 43
0.5500115999999999
 10
5.9449843
 20
0.0
 10
5.0549937
 20
0.0
  0
LWPOLYLINE
  5
319
330
30B
100
AcDbEntity
  8
TopPaste
100
AcDbPolyline
 90
        2
 70
     1
 43
0.2750058
 10
5.8074814
 20
0.0
 42
1.0
 10
6.082487199999999
 20
0.0
 42
1.0
  0
LWPOLYLINE
  5
31A
330
30B
100
AcDbEntity
  8
TopPaste
100
AcDbPolyline
 90
        2
 70
     1
 43
0.2750058
 10
4.917490799999999
 20
0.0
 42
1.0
 10
5.1924966
 20
0.0
 42
1.0
  0
LWPOLYLINE
  5
31B
330
30B
100
AcDbEntity
  8
TopPaste
100
AcDbPolyline
 90
        2
 70
     0
 43
0.5500115999999999
 10
5.9449843
 20
-1.2800076
 10
5.0549937
 20
-1.2800076
  0
LWPOLYLINE
  5
31C
330
30B
100
AcDbEntity
  8
TopPaste
100
AcDbPolyline
 90
        2
 70
     1
 43
0.2750058
 10
5.8074814
 20
-1.2800076
 42
1.0
 10
6.082487199999999
 20
-1.2800076
 42
1.0
  0
LWPOLYLINE
  5
31D
330
30B
100
AcDbEntity
  8
TopPaste
100
AcDbPolyline
 90
        2
 70
     1
 43
0.2750058
 10
4.917490799999999
 20
-1.2800076
 42
1.0
 10
5.1924966
 20
-1.2800076
 42
1.0
  0
LWPOLYLINE
  5
31E
330
30B
100
AcDbEntity
  8
TopPaste
100
AcDbPolyline
 90
        2
 70
     0
 43
0.5500115999999999
 10
5.9449843
 20
-2.5599898
 10
5.0549937
 20
-2.5599898
  0
LWPOLYLINE
  5
31F
330
30B
100
AcDbEntity
  8
TopPaste
100
AcDbPolyline
 90
        2
 70
     1
 43
0.2750058
 10
5.8074814
 20
-2.5599898
 42
1.0
 10
6.082487199999999
 20
-2.5599898
 42
1.0
  0
LWPOLYLINE
  5
320
330
30B
100
AcDbEntity
  8
TopPaste
100
AcDbPolyline
 90
        2
 70
     1
 43
0.2750058
 10
4.917490799999999
 20
-2.5599898
 42
1.0
 10
5.1924966
 20
-2.5599898
 42
1.0
  0
LWPOLYLINE
  5
321
330
30B
100
AcDbEntity
  8
TopPaste
100
AcDbPolyline
 90
        2
 70
     0
 43
0.5500115999999999
 10
5.9449843
 20
-3.8399974
 10
5.0549937
 20
-3.8399974
  0
LWPOLYLINE
  5
322
330
30B
100
AcDbEntity
  8
TopPaste
100
AcDbPolyline
 90
        2
 70
     1
 43
0.2750058
 10
5.8074814
 20
-3.8399974
 42
1.0
 10
6.082487199999999
 20
-3.8399974
 42
1.0
  0
LWPOLYLINE
  5
323
330
30B
100
AcDbEntity
  8
TopPaste
100
AcDbPolyline
 90
        2
 70
     1
 43
0.2750058
 10
4.917490799999999
 20
-3.8399974
 42
1.0
 10
5.1924966
 20
-3.8399974
 42
1.0
  0
ENDBLK
  5
30D
330
30B
100
AcDbEntity
  8
0
100
AcDbBlockEnd
  0
BLOCK
  5
326
330
325
100
AcDbEntity
  8
0
100
AcDbBlockBegin
  2
SO_8N_75
 70
     0
 10
0.0
 20
0.0
 30
0.0
  3
SO_8N_75
  1

  0
LWPOLYLINE
  5
328
330
325
100
AcDbEntity
  8
TopPaste
100
AcDbPolyline
 90
        2
 70
     0
 43
0.5500115999999999
 10
5.9449843
 20
-3.8399974
 10
5.0549937
 20
-3.8399974
  0
LWPOLYLINE
  5
329
330
325
100
AcDbEntity
  8
TopPaste
100
AcDbPolyline
 90
        2
 70
     1
 43
0.2750058
 10
5.8074814
 20
-3.8399974
 42
1.0
 10
6.082487199999999
 20
-3.8399974
 42
1.0
  0
LWPOLYLINE
  5
32A
330
325
100
AcDbEntity
  8
TopPaste
100
AcDbPolyline
 90
        2
 70
     1
 43
0.2750058
 10
4.917490799999999
 20
-3.8399974
 42
1.0
 10
5.1924966
 20
-3.8399974
 42
1.0
  0
LWPOLYLINE
  5
32B
330
325
100
AcDbEntity
  8
TopPaste
100
AcDbPolyline
 90
        2
 70
     0
 43
0.5500115999999999
 10
5.9449843
 20
-2.5599898
 10
5.0549937
 20
-2.5599898
  0
LWPOLYLINE
  5
32C
330
325
100
AcDbEntity
  8
TopPaste
100
AcDbPolyline
 90
        2
 70
     1
 43
0.2750058
 10
5.8074814
 20
-2.5599898
 42
1.0
 10
6.082487199999999
 20
-2.5599898
 42
1.0
  0
LWPOLYLINE
  5
32D
330
325
100
AcDbEntity
  8
TopPaste
100
AcDbPolyline
 90
        2
 70
     1
 43
0.2750058
 10
4.917490799999999
 20
-2.5599898
 42
1.0
 10
5.1924966
 20
-2.5599898
 42
1.0
  0
LWPOLYLINE
  5
32E
330
325
100
AcDbEntity
  8
TopPaste
100
AcDbPolyline
 90
        2
 70
     0
 43
0.5500115999999999
 10
5.9449843
 20
-1.2800076
 10
5.0549937
 20
-1.2800076
  0
LWPOLYLINE
  5
32F
330
325
100
AcDbEntity
  8
TopPaste
100
AcDbPolyline
 90
        2
 70
     1
 43
0.2750058
 10
5.8074814
 20
-1.2800076
 42
1.0
 10
6.082487199999999
 20
-1.2800076
 42
1.0
  0
LWPOLYLINE
  5
330
330
325
100
AcDbEntity
  8
TopPaste
100
AcDbPolyline
 90
        2
 70
     1
 43
0.2750058
 10
4.917490799999999
 20
-1.2800076
 42
1.0
 10
5.1924966
 20
-1.2800076
 42
1.0
  0
LWPOLYLINE
  5
331
330
325
100
AcDbEntity
  8
TopPaste
100
AcDbPolyline
 90
        2
 70
     0
 43
0.5500115999999999
 10
5.9449843
 20
0.0
 10
5.0549937
 20
0.0
  0
LWPOLYLINE
  5
332
330
325
100
AcDbEntity
  8
TopPaste
100
AcDbPolyline
 90
        2
 70
     1
 43
0.2750058
 10
5.8074814
 20
0.0
 42
1.0
 10
6.082487199999999
 20
0.0
 42
1.0
  0
LWPOLYLINE
  5
333
330
325
100
AcDbEntity
  8
TopPaste
100
AcDbPolyline
 90
        2
 70
     1
 43
0.2750058
 10
4.917490799999999
 20
0.0
 42
1.0
 10
5.1924966
 20
0.0
 42
1.0
  0
LWPOLYLINE
  5
334
330
325
100
AcDbEntity
  8
TopPaste
100
AcDbPolyline
 90
        2
 70
     0
 43
0.5500115999999999
 10
0.4449953
 20
-3.8399974
 10
-0.4449953
 20
-3.8399974
  0
LWPOLYLINE
  5
335
330
325
100
AcDbEntity
  8
TopPaste
100
AcDbPolyline
 90
        2
 70
     1
 43
0.2750058
 10
0.3074924
 20
-3.8399974
 42
1.0
 10
0.5824982
 20
-3.8399974
 42
1.0
  0
LWPOLYLINE
  5
336
330
325
100
AcDbEntity
  8
TopPaste
100
AcDbPolyline
 90
        2
 70
     1
 43
0.2750058
 10
-0.5824982
 20
-3.8399974
 42
1.0
 10
-0.3074924
 20
-3.8399974
 42
1.0
  0
LWPOLYLINE
  5
337
330
325
100
AcDbEntity
  8
TopPaste
100
AcDbPolyline
 90
        2
 70
     0
 43
0.5500115999999999
 10
0.4449953
 20
-2.5599898
 10
-0.4449953
 20
-2.5599898
  0
LWPOLYLINE
  5
338
330
325
100
AcDbEntity
  8
TopPaste
100
AcDbPolyline
 90
        2
 70
     1
 43
0.2750058
 10
0.3074924
 20
-2.5599898
 42
1.0
 10
0.5824982
 20
-2.5599898
 42
1.0
  0
LWPOLYLINE
  5
339
330
325
100
AcDbEntity
  8
TopPaste
100
AcDbPolyline
 90
        2
 70
     1
 43
0.2750058
 10
-0.5824982
 20
-2.5599898
 42
1.0
 10
-0.3074924
 20
-2.5599898
 42
1.0
  0
SOLID
  5
33A
330
325
100
AcDbEntity
  8
TopPaste
100
AcDbTrace
 10
-0.7200011
 20
-0.2750058
 30
0.0
 11
0.7200011
 21
-0.2750058
 31
0.0
 12
-0.7200011
 22
0.2750058
 32
0.0
 13
0.7200011
 23
0.2750058
 33
0.0
  0
LWPOLYLINE
  5
33B
330
325
100
AcDbEntity
  8
TopPaste
100
AcDbPolyline
 90
        2
 70
     0
 43
0.5500115999999999
 10
0.4449953
 20
-1.2800076
 10
-0.4449953
 20
-1.2800076
  0
LWPOLYLINE
  5
33C
330
325
100
AcDbEntity
  8
TopPaste
100
AcDbPolyline
 90
        2
 70
     1
 43
0.2750058
 10
0.3074924
 20
-1.2800076
 42
1.0
 10
0.5824982
 20
-1.2800076
 42
1.0
  0
LWPOLYLINE
  5
33D
330
325
100
AcDbEntity
  8
TopPaste
100
AcDbPolyline
 90
        2
 70
     1
 43
0.2750058
 10
-0.5824982
 20
-1.2800076
 42
1.0
 10
-0.3074924
 20
-1.2800076
 42
1.0
  0
ENDBLK
  5
327
330
325
100
AcDbEntity
  8
0
100
AcDbBlockEnd
  0
BLOCK
  5
340
330
33F
100
AcDbEntity
  8
0
100
AcDbBlockBegin
  2
SOT_23_3_76
 70
     0
 10
0.0
 20
0.0
 30
0.0
  3
SOT_23_3_76
  1

  0
SOLID
  5
342
330
33F
100
AcDbEntity
  8
TopPaste
100
AcDbTrace
 10
1.6893667
 20
-0.29440886
 30
0.0
 11
1.6893667
 21
0.3055899399999999
 31
0.0
 12
0.5393817
 22
-0.29440886
 32
0.0
 13
0.5393817
 23
0.3055899399999999
 33
0.0
  0
SOLID
  5
343
330
33F
100
AcDbEntity
  8
TopPaste
100
AcDbTrace
 10
-0.5606161
 20
-1.24438918
 30
0.0
 11
-0.5606161
 21
-0.6443903799999999
 31
0.0
 12
-1.7106011
 22
-1.24438918
 32
0.0
 13
-1.7106011
 23
-0.6443903799999999
 33
0.0
  0
SOLID
  5
344
330
33F
100
AcDbEntity
  8
TopPaste
100
AcDbTrace
 10
-0.56061356
 20
0.6555993999999999
 30
0.0
 11
-0.56061356
 21
1.2555982
 31
0.0
 12
-1.71059856
 22
0.6555993999999999
 32
0.0
 13
-1.71059856
 23
1.2555982
 33
0.0
  0
ENDBLK
  5
341
330
33F
100
AcDbEntity
  8
0
100
AcDbBlockEnd
  0
BLOCK
  5
347
330
346
100
AcDbEntity
  8
0
100
AcDbBlockBegin
  2
___4_3_4_77
 70
     0
 10
0.0
 20
0.0
 30
0.0
  3
___4_3_4_77
  1

  0
SOLID
  5
349
330
346
100
AcDbEntity
  8
TopPaste
100
AcDbTrace
 10
5.09999996
 20
-1.90000128
 30
0.0
 11
3.70000276
 21
-1.90000128
 31
0.0
 12
5.09999996
 22
-2.59999988
 32
0.0
 13
3.70000276
 23
-2.59999988
 33
0.0
  0
SOLID
  5
34A
330
346
100
AcDbEntity
  8
TopPaste
100
AcDbTrace
 10
5.09999996
 20
0.3499993
 30
0.0
 11
3.70000276
 21
0.3499993
 31
0.0
 12
5.09999996
 22
-0.3499993
 32
0.0
 13
3.70000276
 23
-0.3499993
 33
0.0
  0
SOLID
  5
34B
330
346
100
AcDbEntity
  8
TopPaste
100
AcDbTrace
 10
0.8999982
 20
0.3499993
 30
0.0
 11
-0.499999
 21
0.3499993
 31
0.0
 12
0.8999982
 22
-0.3499993
 32
0.0
 13
-0.499999
 23
-0.3499993
 33
0.0
  0
SOLID
  5
34C
330
346
100
AcDbEntity
  8
TopPaste
100
AcDbTrace
 10
0.8999982
 20
-1.90000128
 30
0.0
 11
-0.499999
 21
-1.90000128
 31
0.0
 12
0.8999982
 22
-2.59999988
 32
0.0
 13
-0.499999
 23
-2.59999988
 33
0.0
  0
ENDBLK
  5
348
330
346
100
AcDbEntity
  8
0
100
AcDbBlockEnd
  0
BLOCK
  5
34F
330
34E
100
AcDbEntity
  8
0
100
AcDbBlockBegin
  2
___4_3_4_78
 70
     0
 10
0.0
 20
0.0
 30
0.0
  3
___4_3_4_78
  1

  0
SOLID
  5
351
330
34E
100
AcDbEntity
  8
TopPaste
100
AcDbTrace
 10
5.09999996
 20
-1.90000128
 30
0.0
 11
3.70000276
 21
-1.90000128
 31
0.0
 12
5.09999996
 22
-2.59999988
 32
0.0
 13
3.70000276
 23
-2.59999988
 33
0.0
  0
SOLID
  5
352
330
34E
100
AcDbEntity
  8
TopPaste
100
AcDbTrace
 10
5.09999996
 20
0.3499993
 30
0.0
 11
3.70000276
 21
0.3499993
 31
0.0
 12
5.09999996
 22
-0.3499993
 32
0.0
 13
3.70000276
 23
-0.3499993
 33
0.0
  0
SOLID
  5
353
330
34E
100
AcDbEntity
  8
TopPaste
100
AcDbTrace
 10
0.8999982
 20
0.3499993
 30
0.0
 11
-0.499999
 21
0.3499993
 31
0.0
 12
0.8999982
 22
-0.3499993
 32
0.0
 13
-0.499999
 23
-0.3499993
 33
0.0
  0
SOLID
  5
354
330
34E
100
AcDbEntity
  8
TopPaste
100
AcDbTrace
 10
0.8999982
 20
-1.90000128
 30
0.0
 11
-0.499999
 21
-1.90000128
 31
0.0
 12
0.8999982
 22
-2.59999988
 32
0.0
 13
-0.499999
 23
-2.59999988
 33
0.0
  0
ENDBLK
  5
350
330
34E
100
AcDbEntity
  8
0
100
AcDbBlockEnd
  0
BLOCK
  5
357
330
356
100
AcDbEntity
  8
0
100
AcDbBlockBegin
  2
R0402_M_79
 70
     0
 10
0.0
 20
0.0
 30
0.0
  3
R0402_M_79
  1

  0
SOLID
  5
359
330
356
100
AcDbEntity
  8
TopPaste
100
AcDbTrace
 10
-0.7111999999999999
 20
-0.254
 30
0.0
 11
-0.2032
 21
-0.254
 31
0.0
 12
-0.7111999999999999
 22
0.254
 32
0.0
 13
-0.2032
 23
0.254
 33
0.0
  0
SOLID
  5
35A
330
356
100
AcDbEntity
  8
TopPaste
100
AcDbTrace
 10
0.2032
 20
-0.254
 30
0.0
 11
0.7111999999999999
 21
-0.254
 31
0.0
 12
0.2032
 22
0.254
 32
0.0
 13
0.7111999999999999
 23
0.254
 33
0.0
  0
ENDBLK
  5
358
330
356
100
AcDbEntity
  8
0
100
AcDbBlockEnd
  0
BLOCK
  5
35D
330
35C
100
AcDbEntity
  8
0
100
AcDbBlockBegin
  2
R0402_M_80
 70
     0
 10
0.0
 20
0.0
 30
0.0
  3
R0402_M_80
  1

  0
SOLID
  5
35F
330
35C
100
AcDbEntity
  8
TopPaste
100
AcDbTrace
 10
-0.7111999999999999
 20
-0.254
 30
0.0
 11
-0.2032
 21
-0.254
 31
0.0
 12
-0.7111999999999999
 22
0.254
 32
0.0
 13
-0.2032
 23
0.254
 33
0.0
  0
SOLID
  5
360
330
35C
100
AcDbEntity
  8
TopPaste
100
AcDbTrace
 10
0.2032
 20
-0.254
 30
0.0
 11
0.7111999999999999
 21
-0.254
 31
0.0
 12
0.2032
 22
0.254
 32
0.0
 13
0.7111999999999999
 23
0.254
 33
0.0
  0
ENDBLK
  5
35E
330
35C
100
AcDbEntity
  8
0
100
AcDbBlockEnd
  0
BLOCK
  5
363
330
362
100
AcDbEntity
  8
0
100
AcDbBlockBegin
  2
R0402_M_81
 70
     0
 10
0.0
 20
0.0
 30
0.0
  3
R0402_M_81
  1

  0
SOLID
  5
365
330
362
100
AcDbEntity
  8
TopPaste
100
AcDbTrace
 10
-0.7111999999999999
 20
-0.254
 30
0.0
 11
-0.2032
 21
-0.254
 31
0.0
 12
-0.7111999999999999
 22
0.254
 32
0.0
 13
-0.2032
 23
0.254
 33
0.0
  0
SOLID
  5
366
330
362
100
AcDbEntity
  8
TopPaste
100
AcDbTrace
 10
0.2032
 20
-0.254
 30
0.0
 11
0.7111999999999999
 21
-0.254
 31
0.0
 12
0.2032
 22
0.254
 32
0.0
 13
0.7111999999999999
 23
0.254
 33
0.0
  0
ENDBLK
  5
364
330
362
100
AcDbEntity
  8
0
100
AcDbBlockEnd
  0
BLOCK
  5
369
330
368
100
AcDbEntity
  8
0
100
AcDbBlockBegin
  2
R0402_M_82
 70
     0
 10
0.0
 20
0.0
 30
0.0
  3
R0402_M_82
  1

  0
SOLID
  5
36B
330
368
100
AcDbEntity
  8
TopPaste
100
AcDbTrace
 10
-0.7111999999999999
 20
-0.254
 30
0.0
 11
-0.2032
 21
-0.254
 31
0.0
 12
-0.7111999999999999
 22
0.254
 32
0.0
 13
-0.2032
 23
0.254
 33
0.0
  0
SOLID
  5
36C
330
368
100
AcDbEntity
  8
TopPaste
100
AcDbTrace
 10
0.2032
 20
-0.254
 30
0.0
 11
0.7111999999999999
 21
-0.254
 31
0.0
 12
0.2032
 22
0.254
 32
0.0
 13
0.7111999999999999
 23
0.254
 33
0.0
  0
ENDBLK
  5
36A
330
368
100
AcDbEntity
  8
0
100
AcDbBlockEnd
  0
BLOCK
  5
36F
330
36E
100
AcDbEntity
  8
0
100
AcDbBlockBegin
  2
R0402_M_83
 70
     0
 10
0.0
 20
0.0
 30
0.0
  3
R0402_M_83
  1

  0
SOLID
  5
371
330
36E
100
AcDbEntity
  8
TopPaste
100
AcDbTrace
 10
-0.7111999999999999
 20
-0.254
 30
0.0
 11
-0.2032
 21
-0.254
 31
0.0
 12
-0.7111999999999999
 22
0.254
 32
0.0
 13
-0.2032
 23
0.254
 33
0.0
  0
SOLID
  5
372
330
36E
100
AcDbEntity
  8
TopPaste
100
AcDbTrace
 10
0.2032
 20
-0.254
 30
0.0
 11
0.7111999999999999
 21
-0.254
 31
0.0
 12
0.2032
 22
0.254
 32
0.0
 13
0.7111999999999999
 23
0.254
 33
0.0
  0
ENDBLK
  5
370
330
36E
100
AcDbEntity
  8
0
100
AcDbBlockEnd
  0
BLOCK
  5
375
330
374
100
AcDbEntity
  8
0
100
AcDbBlockBegin
  2
R0402_M_84
 70
     0
 10
0.0
 20
0.0
 30
0.0
  3
R0402_M_84
  1

  0
SOLID
  5
377
330
374
100
AcDbEntity
  8
TopPaste
100
AcDbTrace
 10
-0.7111999999999999
 20
-0.254
 30
0.0
 11
-0.2032
 21
-0.254
 31
0.0
 12
-0.7111999999999999
 22
0.254
 32
0.0
 13
-0.2032
 23
0.254
 33
0.0
  0
SOLID
  5
378
330
374
100
AcDbEntity
  8
TopPaste
100
AcDbTrace
 10
0.2032
 20
-0.254
 30
0.0
 11
0.7111999999999999
 21
-0.254
 31
0.0
 12
0.2032
 22
0.254
 32
0.0
 13
0.7111999999999999
 23
0.254
 33
0.0
  0
ENDBLK
  5
376
330
374
100
AcDbEntity
  8
0
100
AcDbBlockEnd
  0
BLOCK
  5
37B
330
37A
100
AcDbEntity
  8
0
100
AcDbBlockBegin
  2
R0402_M_85
 70
     0
 10
0.0
 20
0.0
 30
0.0
  3
R0402_M_85
  1

  0
SOLID
  5
37D
330
37A
100
AcDbEntity
  8
TopPaste
100
AcDbTrace
 10
-0.7111999999999999
 20
-0.254
 30
0.0
 11
-0.2032
 21
-0.254
 31
0.0
 12
-0.7111999999999999
 22
0.254
 32
0.0
 13
-0.2032
 23
0.254
 33
0.0
  0
SOLID
  5
37E
330
37A
100
AcDbEntity
  8
TopPaste
100
AcDbTrace
 10
0.2032
 20
-0.254
 30
0.0
 11
0.7111999999999999
 21
-0.254
 31
0.0
 12
0.2032
 22
0.254
 32
0.0
 13
0.7111999999999999
 23
0.254
 33
0.0
  0
ENDBLK
  5
37C
330
37A
100
AcDbEntity
  8
0
100
AcDbBlockEnd
  0
BLOCK
  5
381
330
380
100
AcDbEntity
  8
0
100
AcDbBlockBegin
  2
R0402_M_86
 70
     0
 10
0.0
 20
0.0
 30
0.0
  3
R0402_M_86
  1

  0
SOLID
  5
383
330
380
100
AcDbEntity
  8
TopPaste
100
AcDbTrace
 10
-0.7111999999999999
 20
-0.254
 30
0.0
 11
-0.2032
 21
-0.254
 31
0.0
 12
-0.7111999999999999
 22
0.254
 32
0.0
 13
-0.2032
 23
0.254
 33
0.0
  0
SOLID
  5
384
330
380
100
AcDbEntity
  8
TopPaste
100
AcDbTrace
 10
0.2032
 20
-0.254
 30
0.0
 11
0.7111999999999999
 21
-0.254
 31
0.0
 12
0.2032
 22
0.254
 32
0.0
 13
0.7111999999999999
 23
0.254
 33
0.0
  0
ENDBLK
  5
382
330
380
100
AcDbEntity
  8
0
100
AcDbBlockEnd
  0
BLOCK
  5
387
330
386
100
AcDbEntity
  8
0
100
AcDbBlockBegin
  2
R0402_M_87
 70
     0
 10
0.0
 20
0.0
 30
0.0
  3
R0402_M_87
  1

  0
SOLID
  5
389
330
386
100
AcDbEntity
  8
TopPaste
100
AcDbTrace
 10
-0.7111999999999999
 20
-0.254
 30
0.0
 11
-0.2032
 21
-0.254
 31
0.0
 12
-0.7111999999999999
 22
0.254
 32
0.0
 13
-0.2032
 23
0.254
 33
0.0
  0
SOLID
  5
38A
330
386
100
AcDbEntity
  8
TopPaste
100
AcDbTrace
 10
0.2032
 20
-0.254
 30
0.0
 11
0.7111999999999999
 21
-0.254
 31
0.0
 12
0.2032
 22
0.254
 32
0.0
 13
0.7111999999999999
 23
0.254
 33
0.0
  0
ENDBLK
  5
388
330
386
100
AcDbEntity
  8
0
100
AcDbBlockEnd
  0
BLOCK
  5
38D
330
38C
100
AcDbEntity
  8
0
100
AcDbBlockBegin
  2
SOT_23_3___88
 70
     0
 10
0.0
 20
0.0
 30
0.0
  3
SOT_23_3___88
  1

  0
SOLID
  5
38F
330
38C
100
AcDbEntity
  8
TopPaste
100
AcDbTrace
 10
-0.56061356
 20
0.6555993999999999
 30
0.0
 11
-0.56061356
 21
1.2555982
 31
0.0
 12
-1.71059856
 22
0.6555993999999999
 32
0.0
 13
-1.71059856
 23
1.2555982
 33
0.0
  0
SOLID
  5
390
330
38C
100
AcDbEntity
  8
TopPaste
100
AcDbTrace
 10
-0.5606161
 20
-1.24438918
 30
0.0
 11
-0.5606161
 21
-0.6443903799999999
 31
0.0
 12
-1.7106011
 22
-1.24438918
 32
0.0
 13
-1.7106011
 23
-0.6443903799999999
 33
0.0
  0
SOLID
  5
391
330
38C
100
AcDbEntity
  8
TopPaste
100
AcDbTrace
 10
1.6893667
 20
-0.29440886
 30
0.0
 11
1.6893667
 21
0.3055899399999999
 31
0.0
 12
0.5393817
 22
-0.29440886
 32
0.0
 13
0.5393817
 23
0.3055899399999999
 33
0.0
  0
ENDBLK
  5
38E
330
38C
100
AcDbEntity
  8
0
100
AcDbBlockEnd
  0
BLOCK
  5
394
330
393
100
AcDbEntity
  8
0
100
AcDbBlockBegin
  2
HN1X8_89
 70
     0
 10
0.0
 20
0.0
 30
0.0
  3
HN1X8_89
  1

  0
ENDBLK
  5
395
330
393
100
AcDbEntity
  8
0
100
AcDbBlockEnd
  0
BLOCK
  5
398
330
397
100
AcDbEntity
  8
0
100
AcDbBlockBegin
  2
HN1X10_90
 70
     0
 10
0.0
 20
0.0
 30
0.0
  3
HN1X10_90
  1

  0
ENDBLK
  5
399
330
397
100
AcDbEntity
  8
0
100
AcDbBlockEnd
  0
BLOCK
  5
39C
330
39B
100
AcDbEntity
  8
0
100
AcDbBlockBegin
  2
HN1X6_91
 70
     0
 10
0.0
 20
0.0
 30
0.0
  3
HN1X6_91
  1

  0
ENDBLK
  5
39D
330
39B
100
AcDbEntity
  8
0
100
AcDbBlockEnd
  0
BLOCK
  5
3A0
330
39F
100
AcDbEntity
  8
0
100
AcDbBlockBegin
  2
HN1X8_92
 70
     0
 10
0.0
 20
0.0
 30
0.0
  3
HN1X8_92
  1

  0
ENDBLK
  5
3A1
330
39F
100
AcDbEntity
  8
0
100
AcDbBlockEnd
  0
BLOCK
  5
3A4
330
3A3
100
AcDbEntity
  8
0
100
AcDbBlockBegin
  2
FPC_24P_0_5_93
 70
     0
 10
0.0
 20
0.0
 30
0.0
  3
FPC_24P_0_5_93
  1

  0
SOLID
  5
3A6
330
3A3
100
AcDbEntity
  8
TopPaste
100
AcDbTrace
 10
14.59999874
 20
-1.59999934
 30
0.0
 11
16.59999982
 21
-1.59999934
 31
0.0
 12
14.59999874
 22
1.39999974
 32
0.0
 13
16.59999982
 23
1.39999974
 33
0.0
  0
SOLID
  5
3A7
330
3A3
100
AcDbEntity
  8
TopPaste
100
AcDbTrace
 10
-0.0999998
 20
-1.59999934
 30
0.0
 11
1.90000128
 21
-1.59999934
 31
0.0
 12
-0.0999998
 22
1.39999974
 32
0.0
 13
1.90000128
 23
1.39999974
 33
0.0
  0
SOLID
  5
3A8
330
3A3
100
AcDbEntity
  8
TopPaste
100
AcDbTrace
 10
2.35000038
 20
1.60000188
 30
0.0
 11
2.64999978
 21
1.60000188
 31
0.0
 12
2.35000038
 22
2.99999908
 32
0.0
 13
2.64999978
 23
2.99999908
 33
0.0
  0
SOLID
  5
3A9
330
3A3
100
AcDbEntity
  8
TopPaste
100
AcDbTrace
 10
2.84999938
 20
1.60000188
 30
0.0
 11
3.14999878
 21
1.60000188
 31
0.0
 12
2.84999938
 22
2.99999908
 32
0.0
 13
3.14999878
 23
2.99999908
 33
0.0
  0
SOLID
  5
3AA
330
3A3
100
AcDbEntity
  8
TopPaste
100
AcDbTrace
 10
3.34999838
 20
1.60000188
 30
0.0
 11
3.64999778
 21
1.60000188
 31
0.0
 12
3.34999838
 22
2.99999908
 32
0.0
 13
3.64999778
 23
2.99999908
 33
0.0
  0
SOLID
  5
3AB
330
3A3
100
AcDbEntity
  8
TopPaste
100
AcDbTrace
 10
3.84999738
 20
1.60000188
 30
0.0
 11
4.149996779999999
 21
1.60000188
 31
0.0
 12
3.84999738
 22
2.99999908
 32
0.0
 13
4.149996779999999
 23
2.99999908
 33
0.0
  0
SOLID
  5
3AC
330
3A3
100
AcDbEntity
  8
TopPaste
100
AcDbTrace
 10
4.349996379999999
 20
1.60000188
 30
0.0
 11
4.64999578
 21
1.60000188
 31
0.0
 12
4.349996379999999
 22
2.99999908
 32
0.0
 13
4.64999578
 23
2.99999908
 33
0.0
  0
SOLID
  5
3AD
330
3A3
100
AcDbEntity
  8
TopPaste
100
AcDbTrace
 10
4.849995379999999
 20
1.60000188
 30
0.0
 11
5.14999478
 21
1.60000188
 31
0.0
 12
4.849995379999999
 22
2.99999908
 32
0.0
 13
5.14999478
 23
2.99999908
 33
0.0
  0
SOLID
  5
3AE
330
3A3
100
AcDbEntity
  8
TopPaste
100
AcDbTrace
 10
5.649998859999999
 20
2.99999908
 30
0.0
 11
5.34999946
 21
2.99999908
 31
0.0
 12
5.649998859999999
 22
1.60000188
 32
0.0
 13
5.34999946
 23
1.60000188
 33
0.0
  0
SOLID
  5
3AF
330
3A3
100
AcDbEntity
  8
TopPaste
100
AcDbTrace
 10
6.1500004
 20
2.99999908
 30
0.0
 11
5.850001
 21
2.99999908
 31
0.0
 12
6.1500004
 22
1.60000188
 32
0.0
 13
5.850001
 23
1.60000188
 33
0.0
  0
SOLID
  5
3B0
330
3A3
100
AcDbEntity
  8
TopPaste
100
AcDbTrace
 10
6.6499994
 20
2.99999908
 30
0.0
 11
6.35
 21
2.99999908
 31
0.0
 12
6.6499994
 22
1.60000188
 32
0.0
 13
6.35
 23
1.60000188
 33
0.0
  0
SOLID
  5
3B1
330
3A3
100
AcDbEntity
  8
TopPaste
100
AcDbTrace
 10
7.15000094
 20
2.99999908
 30
0.0
 11
6.85000154
 21
2.99999908
 31
0.0
 12
7.15000094
 22
1.60000188
 32
0.0
 13
6.85000154
 23
1.60000188
 33
0.0
  0
SOLID
  5
3B2
330
3A3
100
AcDbEntity
  8
TopPaste
100
AcDbTrace
 10
7.649999939999999
 20
2.99999908
 30
0.0
 11
7.35000054
 21
2.99999908
 31
0.0
 12
7.649999939999999
 22
1.60000188
 32
0.0
 13
7.35000054
 23
1.60000188
 33
0.0
  0
SOLID
  5
3B3
330
3A3
100
AcDbEntity
  8
TopPaste
100
AcDbTrace
 10
8.14999894
 20
2.99999908
 30
0.0
 11
7.849999540000001
 21
2.99999908
 31
0.0
 12
8.14999894
 22
1.60000188
 32
0.0
 13
7.849999540000001
 23
1.60000188
 33
0.0
  0
SOLID
  5
3B4
330
3A3
100
AcDbEntity
  8
TopPaste
100
AcDbTrace
 10
8.65000048
 20
2.99999908
 30
0.0
 11
8.350001079999998
 21
2.99999908
 31
0.0
 12
8.65000048
 22
1.60000188
 32
0.0
 13
8.350001079999998
 23
1.60000188
 33
0.0
  0
SOLID
  5
3B5
330
3A3
100
AcDbEntity
  8
TopPaste
100
AcDbTrace
 10
9.14999948
 20
2.99999908
 30
0.0
 11
8.85000008
 21
2.99999908
 31
0.0
 12
9.14999948
 22
1.60000188
 32
0.0
 13
8.85000008
 23
1.60000188
 33
0.0
  0
SOLID
  5
3B6
330
3A3
100
AcDbEntity
  8
TopPaste
100
AcDbTrace
 10
9.64999848
 20
2.99999908
 30
0.0
 11
9.34999908
 21
2.99999908
 31
0.0
 12
9.64999848
 22
1.60000188
 32
0.0
 13
9.34999908
 23
1.60000188
 33
0.0
  0
SOLID
  5
3B7
330
3A3
100
AcDbEntity
  8
TopPaste
100
AcDbTrace
 10
10.15000002
 20
2.99999908
 30
0.0
 11
9.85000062
 21
2.99999908
 31
0.0
 12
10.15000002
 22
1.60000188
 32
0.0
 13
9.85000062
 23
1.60000188
 33
0.0
  0
SOLID
  5
3B8
330
3A3
100
AcDbEntity
  8
TopPaste
100
AcDbTrace
 10
10.64999902
 20
2.99999908
 30
0.0
 11
10.34999962
 21
2.99999908
 31
0.0
 12
10.64999902
 22
1.60000188
 32
0.0
 13
10.34999962
 23
1.60000188
 33
0.0
  0
SOLID
  5
3B9
330
3A3
100
AcDbEntity
  8
TopPaste
100
AcDbTrace
 10
11.15000056
 20
2.99999908
 30
0.0
 11
10.85000116
 21
2.99999908
 31
0.0
 12
11.15000056
 22
1.60000188
 32
0.0
 13
10.85000116
 23
1.60000188
 33
0.0
  0
SOLID
  5
3BA
330
3A3
100
AcDbEntity
  8
TopPaste
100
AcDbTrace
 10
11.64999956
 20
2.99999908
 30
0.0
 11
11.35000016
 21
2.99999908
 31
0.0
 12
11.64999956
 22
1.60000188
 32
0.0
 13
11.35000016
 23
1.60000188
 33
0.0
  0
SOLID
  5
3BB
330
3A3
100
AcDbEntity
  8
TopPaste
100
AcDbTrace
 10
12.14999856
 20
2.99999908
 30
0.0
 11
11.84999916
 21
2.99999908
 31
0.0
 12
12.14999856
 22
1.60000188
 32
0.0
 13
11.84999916
 23
1.60000188
 33
0.0
  0
SOLID
  5
3BC
330
3A3
100
AcDbEntity
  8
TopPaste
100
AcDbTrace
 10
12.6500001
 20
2.99999908
 30
0.0
 11
12.3500007
 21
2.99999908
 31
0.0
 12
12.6500001
 22
1.60000188
 32
0.0
 13
12.3500007
 23
1.60000188
 33
0.0
  0
SOLID
  5
3BD
330
3A3
100
AcDbEntity
  8
TopPaste
100
AcDbTrace
 10
13.1499991
 20
2.99999908
 30
0.0
 11
12.8499997
 21
2.99999908
 31
0.0
 12
13.1499991
 22
1.60000188
 32
0.0
 13
12.8499997
 23
1.60000188
 33
0.0
  0
SOLID
  5
3BE
330
3A3
100
AcDbEntity
  8
TopPaste
100
AcDbTrace
 10
13.65000064
 20
2.99999908
 30
0.0
 11
13.35000124
 21
2.99999908
 31
0.0
 12
13.65000064
 22
1.60000188
 32
0.0
 13
13.35000124
 23
1.60000188
 33
0.0
  0
SOLID
  5
3BF
330
3A3
100
AcDbEntity
  8
TopPaste
100
AcDbTrace
 10
14.14999964
 20
2.99999908
 30
0.0
 11
13.85000024
 21
2.99999908
 31
0.0
 12
14.14999964
 22
1.60000188
 32
0.0
 13
13.85000024
 23
1.60000188
 33
0.0
  0
ENDBLK
  5
3A5
330
3A3
100
AcDbEntity
  8
0
100
AcDbBlockEnd
  0
BLOCK
  5
3C2
330
3C1
100
AcDbEntity
  8
0
100
AcDbBlockBegin
  2
TF_SHORT_94
 70
     0
 10
0.0
 20
0.0
 30
0.0
  3
TF_SHORT_94
  1

  0
SOLID
  5
3C4
330
3C1
100
AcDbEntity
  8
TopPaste
100
AcDbTrace
 10
-4.2249979
 20
4.22500044
 30
0.0
 11
-3.5249993
 21
4.22500044
 31
0.0
 12
-4.2249979
 22
5.475000479999999
 32
0.0
 13
-3.5249993
 23
5.475000479999999
 33
0.0
  0
SOLID
  5
3C5
330
3C1
100
AcDbEntity
  8
TopPaste
100
AcDbTrace
 10
-3.12499756
 20
4.22500044
 30
0.0
 11
-2.42499896
 21
4.22500044
 31
0.0
 12
-3.12499756
 22
5.475000479999999
 32
0.0
 13
-2.42499896
 23
5.475000479999999
 33
0.0
  0
SOLID
  5
3C6
330
3C1
100
AcDbEntity
  8
TopPaste
100
AcDbTrace
 10
-2.02499976
 20
4.22500044
 30
0.0
 11
-1.32500116
 21
4.22500044
 31
0.0
 12
-2.02499976
 22
5.475000479999999
 32
0.0
 13
-1.32500116
 23
5.475000479999999
 33
0.0
  0
SOLID
  5
3C7
330
3C1
100
AcDbEntity
  8
TopPaste
100
AcDbTrace
 10
-0.9249994199999999
 20
4.22500044
 30
0.0
 11
-0.22500082
 21
4.22500044
 31
0.0
 12
-0.9249994199999999
 22
5.475000479999999
 32
0.0
 13
-0.22500082
 23
5.475000479999999
 33
0.0
  0
SOLID
  5
3C8
330
3C1
100
AcDbEntity
  8
TopPaste
100
AcDbTrace
 10
0.17500092
 20
4.22500044
 30
0.0
 11
0.87499952
 21
4.22500044
 31
0.0
 12
0.17500092
 22
5.475000479999999
 32
0.0
 13
0.87499952
 23
5.475000479999999
 33
0.0
  0
SOLID
  5
3C9
330
3C1
100
AcDbEntity
  8
TopPaste
100
AcDbTrace
 10
1.27500126
 20
4.22500044
 30
0.0
 11
1.97499986
 21
4.22500044
 31
0.0
 12
1.27500126
 22
5.475000479999999
 32
0.0
 13
1.97499986
 23
5.475000479999999
 33
0.0
  0
SOLID
  5
3CA
330
3C1
100
AcDbEntity
  8
TopPaste
100
AcDbTrace
 10
2.3750016
 20
4.22500044
 30
0.0
 11
3.0750002
 21
4.22500044
 31
0.0
 12
2.3750016
 22
5.475000479999999
 32
0.0
 13
3.0750002
 23
5.475000479999999
 33
0.0
  0
SOLID
  5
3CB
330
3C1
100
AcDbEntity
  8
TopPaste
100
AcDbTrace
 10
3.475001939999999
 20
4.22500044
 30
0.0
 11
4.175000539999999
 21
4.22500044
 31
0.0
 12
3.475001939999999
 22
5.475000479999999
 32
0.0
 13
4.175000539999999
 23
5.475000479999999
 33
0.0
  0
SOLID
  5
3CC
330
3C1
100
AcDbEntity
  8
TopPaste
100
AcDbTrace
 10
-5.72499998
 20
0.7260005799999999
 30
0.0
 11
-4.57499974
 21
0.7260005799999999
 31
0.0
 12
-5.72499998
 22
3.77400058
 32
0.0
 13
-4.57499974
 23
3.77400058
 33
0.0
  0
SOLID
  5
3CD
330
3C1
100
AcDbEntity
  8
TopPaste
100
AcDbTrace
 10
4.725001979999999
 20
2.4750014
 30
0.0
 11
6.17500162
 21
2.4750014
 31
0.0
 12
4.725001979999999
 22
3.8749986
 32
0.0
 13
6.17500162
 23
3.8749986
 33
0.0
  0
SOLID
  5
3CE
330
3C1
100
AcDbEntity
  8
TopPaste
100
AcDbTrace
 10
5.2000023
 20
1.57500066
 30
0.0
 11
6.200000299999999
 21
1.57500066
 31
0.0
 12
5.2000023
 22
2.17499946
 32
0.0
 13
6.200000299999999
 23
2.17499946
 33
0.0
  0
SOLID
  5
3CF
330
3C1
100
AcDbEntity
  8
TopPaste
100
AcDbTrace
 10
4.099999420000001
 20
0.47500032
 30
0.0
 11
5.050000059999999
 21
0.47500032
 31
0.0
 12
4.099999420000001
 22
1.32500116
 32
0.0
 13
5.050000059999999
 23
1.32500116
 33
0.0
  0
ENDBLK
  5
3C3
330
3C1
100
AcDbEntity
  8
0
100
AcDbBlockEnd
  0
BLOCK
  5
3D2
330
3D1
100
AcDbEntity
  8
0
100
AcDbBlockBegin
  2
USB_C_95
 70
     0
 10
0.0
 20
0.0
 30
0.0
  3
USB_C_95
  1

  0
SOLID
  5
3D4
330
3D1
100
AcDbEntity
  8
TopPaste
100
AcDbTrace
 10
-3.50000062
 20
-0.56999886
 30
0.0
 11
-3.20000122
 21
-0.56999886
 31
0.0
 12
-3.50000062
 22
0.56999886
 32
0.0
 13
-3.20000122
 23
0.56999886
 33
0.0
  0
SOLID
  5
3D5
330
3D1
100
AcDbEntity
  8
TopPaste
100
AcDbTrace
 10
3.20000122
 20
-0.56999886
 30
0.0
 11
3.50000062
 21
-0.56999886
 31
0.0
 12
3.20000122
 22
0.56999886
 32
0.0
 13
3.50000062
 23
0.56999886
 33
0.0
  0
SOLID
  5
3D6
330
3D1
100
AcDbEntity
  8
TopPaste
100
AcDbTrace
 10
2.89999928
 20
-0.56999886
 30
0.0
 11
3.19999868
 21
-0.56999886
 31
0.0
 12
2.89999928
 22
0.56999886
 32
0.0
 13
3.19999868
 23
0.56999886
 33
0.0
  0
SOLID
  5
3D7
330
3D1
100
AcDbEntity
  8
TopPaste
100
AcDbTrace
 10
2.40000028
 20
-0.56999886
 30
0.0
 11
2.69999968
 21
-0.56999886
 31
0.0
 12
2.40000028
 22
0.56999886
 32
0.0
 13
2.69999968
 23
0.56999886
 33
0.0
  0
SOLID
  5
3D8
330
3D1
100
AcDbEntity
  8
TopPaste
100
AcDbTrace
 10
-3.19999868
 20
-0.56999886
 30
0.0
 11
-2.89999928
 21
-0.56999886
 31
0.0
 12
-3.19999868
 22
0.56999886
 32
0.0
 13
-2.89999928
 23
0.56999886
 33
0.0
  0
SOLID
  5
3D9
330
3D1
100
AcDbEntity
  8
TopPaste
100
AcDbTrace
 10
-2.69999968
 20
-0.56999886
 30
0.0
 11
-2.40000028
 21
-0.56999886
 31
0.0
 12
-2.69999968
 22
0.56999886
 32
0.0
 13
-2.40000028
 23
0.56999886
 33
0.0
  0
SOLID
  5
3DA
330
3D1
100
AcDbEntity
  8
TopPaste
100
AcDbTrace
 10
-2.40000028
 20
-0.56999886
 30
0.0
 11
-2.10000088
 21
-0.56999886
 31
0.0
 12
-2.40000028
 22
0.56999886
 32
0.0
 13
-2.10000088
 23
0.56999886
 33
0.0
  0
SOLID
  5
3DB
330
3D1
100
AcDbEntity
  8
TopPaste
100
AcDbTrace
 10
-1.89999874
 20
-0.56999886
 30
0.0
 11
-1.59999934
 21
-0.56999886
 31
0.0
 12
-1.89999874
 22
0.56999886
 32
0.0
 13
-1.59999934
 23
0.56999886
 33
0.0
  0
SOLID
  5
3DC
330
3D1
100
AcDbEntity
  8
TopPaste
100
AcDbTrace
 10
-1.39999974
 20
-0.56999886
 30
0.0
 11
-1.10000034
 21
-0.56999886
 31
0.0
 12
-1.39999974
 22
0.56999886
 32
0.0
 13
-1.10000034
 23
0.56999886
 33
0.0
  0
SOLID
  5
3DD
330
3D1
100
AcDbEntity
  8
TopPaste
100
AcDbTrace
 10
-0.90000074
 20
-0.56999886
 30
0.0
 11
-0.6000013399999999
 21
-0.56999886
 31
0.0
 12
-0.90000074
 22
0.56999886
 32
0.0
 13
-0.6000013399999999
 23
0.56999886
 33
0.0
  0
SOLID
  5
3DE
330
3D1
100
AcDbEntity
  8
TopPaste
100
AcDbTrace
 10
2.10000088
 20
-0.56999886
 30
0.0
 11
2.40000028
 21
-0.56999886
 31
0.0
 12
2.10000088
 22
0.56999886
 32
0.0
 13
2.40000028
 23
0.56999886
 33
0.0
  0
SOLID
  5
3DF
330
3D1
100
AcDbEntity
  8
TopPaste
100
AcDbTrace
 10
1.59999934
 20
-0.56999886
 30
0.0
 11
1.89999874
 21
-0.56999886
 31
0.0
 12
1.59999934
 22
0.56999886
 32
0.0
 13
1.89999874
 23
0.56999886
 33
0.0
  0
SOLID
  5
3E0
330
3D1
100
AcDbEntity
  8
TopPaste
100
AcDbTrace
 10
1.10000034
 20
-0.56999886
 30
0.0
 11
1.39999974
 21
-0.56999886
 31
0.0
 12
1.10000034
 22
0.56999886
 32
0.0
 13
1.39999974
 23
0.56999886
 33
0.0
  0
SOLID
  5
3E1
330
3D1
100
AcDbEntity
  8
TopPaste
100
AcDbTrace
 10
0.6000013399999999
 20
-0.56999886
 30
0.0
 11
0.90000074
 21
-0.56999886
 31
0.0
 12
0.6000013399999999
 22
0.56999886
 32
0.0
 13
0.90000074
 23
0.56999886
 33
0.0
  0
SOLID
  5
3E2
330
3D1
100
AcDbEntity
  8
TopPaste
100
AcDbTrace
 10
0.0999998
 20
-0.56999886
 30
0.0
 11
0.3999992
 21
-0.56999886
 31
0.0
 12
0.0999998
 22
0.56999886
 32
0.0
 13
0.3999992
 23
0.56999886
 33
0.0
  0
SOLID
  5
3E3
330
3D1
100
AcDbEntity
  8
TopPaste
100
AcDbTrace
 10
-0.3999992
 20
-0.56999886
 30
0.0
 11
-0.0999998
 21
-0.56999886
 31
0.0
 12
-0.3999992
 22
0.56999886
 32
0.0
 13
-0.0999998
 23
0.56999886
 33
0.0
  0
ENDBLK
  5
3D3
330
3D1
100
AcDbEntity
  8
0
100
AcDbBlockEnd
  0
BLOCK
  5
3E6
330
3E5
100
AcDbEntity
  8
0
100
AcDbBlockBegin
  2
FPC_24P_0_5__96
 70
     0
 10
0.0
 20
0.0
 30
0.0
  3
FPC_24P_0_5__96
  1

  0
SOLID
  5
3E8
330
3E5
100
AcDbEntity
  8
TopPaste
100
AcDbTrace
 10
14.14999964
 20
2.99999908
 30
0.0
 11
13.85000024
 21
2.99999908
 31
0.0
 12
14.14999964
 22
1.60000188
 32
0.0
 13
13.85000024
 23
1.60000188
 33
0.0
  0
SOLID
  5
3E9
330
3E5
100
AcDbEntity
  8
TopPaste
100
AcDbTrace
 10
13.65000064
 20
2.99999908
 30
0.0
 11
13.35000124
 21
2.99999908
 31
0.0
 12
13.65000064
 22
1.60000188
 32
0.0
 13
13.35000124
 23
1.60000188
 33
0.0
  0
SOLID
  5
3EA
330
3E5
100
AcDbEntity
  8
TopPaste
100
AcDbTrace
 10
13.1499991
 20
2.99999908
 30
0.0
 11
12.8499997
 21
2.99999908
 31
0.0
 12
13.1499991
 22
1.60000188
 32
0.0
 13
12.8499997
 23
1.60000188
 33
0.0
  0
SOLID
  5
3EB
330
3E5
100
AcDbEntity
  8
TopPaste
100
AcDbTrace
 10
12.6500001
 20
2.99999908
 30
0.0
 11
12.3500007
 21
2.99999908
 31
0.0
 12
12.6500001
 22
1.60000188
 32
0.0
 13
12.3500007
 23
1.60000188
 33
0.0
  0
SOLID
  5
3EC
330
3E5
100
AcDbEntity
  8
TopPaste
100
AcDbTrace
 10
12.14999856
 20
2.99999908
 30
0.0
 11
11.84999916
 21
2.99999908
 31
0.0
 12
12.14999856
 22
1.60000188
 32
0.0
 13
11.84999916
 23
1.60000188
 33
0.0
  0
SOLID
  5
3ED
330
3E5
100
AcDbEntity
  8
TopPaste
100
AcDbTrace
 10
11.64999956
 20
2.99999908
 30
0.0
 11
11.35000016
 21
2.99999908
 31
0.0
 12
11.64999956
 22
1.60000188
 32
0.0
 13
11.35000016
 23
1.60000188
 33
0.0
  0
SOLID
  5
3EE
330
3E5
100
AcDbEntity
  8
TopPaste
100
AcDbTrace
 10
11.15000056
 20
2.99999908
 30
0.0
 11
10.85000116
 21
2.99999908
 31
0.0
 12
11.15000056
 22
1.60000188
 32
0.0
 13
10.85000116
 23
1.60000188
 33
0.0
  0
SOLID
  5
3EF
330
3E5
100
AcDbEntity
  8
TopPaste
100
AcDbTrace
 10
10.64999902
 20
2.99999908
 30
0.0
 11
10.34999962
 21
2.99999908
 31
0.0
 12
10.64999902
 22
1.60000188
 32
0.0
 13
10.34999962
 23
1.60000188
 33
0.0
  0
SOLID
  5
3F0
330
3E5
100
AcDbEntity
  8
TopPaste
100
AcDbTrace
 10
10.15000002
 20
2.99999908
 30
0.0
 11
9.85000062
 21
2.99999908
 31
0.0
 12
10.15000002
 22
1.60000188
 32
0.0
 13
9.85000062
 23
1.60000188
 33
0.0
  0
SOLID
  5
3F1
330
3E5
100
AcDbEntity
  8
TopPaste
100
AcDbTrace
 10
9.64999848
 20
2.99999908
 30
0.0
 11
9.34999908
 21
2.99999908
 31
0.0
 12
9.64999848
 22
1.60000188
 32
0.0
 13
9.34999908
 23
1.60000188
 33
0.0
  0
SOLID
  5
3F2
330
3E5
100
AcDbEntity
  8
TopPaste
100
AcDbTrace
 10
9.14999948
 20
2.99999908
 30
0.0
 11
8.85000008
 21
2.99999908
 31
0.0
 12
9.14999948
 22
1.60000188
 32
0.0
 13
8.85000008
 23
1.60000188
 33
0.0
  0
SOLID
  5
3F3
330
3E5
100
AcDbEntity
  8
TopPaste
100
AcDbTrace
 10
8.65000048
 20
2.99999908
 30
0.0
 11
8.350001079999998
 21
2.99999908
 31
0.0
 12
8.65000048
 22
1.60000188
 32
0.0
 13
8.350001079999998
 23
1.60000188
 33
0.0
  0
SOLID
  5
3F4
330
3E5
100
AcDbEntity
  8
TopPaste
100
AcDbTrace
 10
8.14999894
 20
2.99999908
 30
0.0
 11
7.849999540000001
 21
2.99999908
 31
0.0
 12
8.14999894
 22
1.60000188
 32
0.0
 13
7.849999540000001
 23
1.60000188
 33
0.0
  0
SOLID
  5
3F5
330
3E5
100
AcDbEntity
  8
TopPaste
100
AcDbTrace
 10
7.649999939999999
 20
2.99999908
 30
0.0
 11
7.35000054
 21
2.99999908
 31
0.0
 12
7.649999939999999
 22
1.60000188
 32
0.0
 13
7.35000054
 23
1.60000188
 33
0.0
  0
SOLID
  5
3F6
330
3E5
100
AcDbEntity
  8
TopPaste
100
AcDbTrace
 10
7.15000094
 20
2.99999908
 30
0.0
 11
6.85000154
 21
2.99999908
 31
0.0
 12
7.15000094
 22
1.60000188
 32
0.0
 13
6.85000154
 23
1.60000188
 33
0.0
  0
SOLID
  5
3F7
330
3E5
100
AcDbEntity
  8
TopPaste
100
AcDbTrace
 10
6.6499994
 20
2.99999908
 30
0.0
 11
6.35
 21
2.99999908
 31
0.0
 12
6.6499994
 22
1.60000188
 32
0.0
 13
6.35
 23
1.60000188
 33
0.0
  0
SOLID
  5
3F8
330
3E5
100
AcDbEntity
  8
TopPaste
100
AcDbTrace
 10
6.1500004
 20
2.99999908
 30
0.0
 11
5.850001
 21
2.99999908
 31
0.0
 12
6.1500004
 22
1.60000188
 32
0.0
 13
5.850001
 23
1.60000188
 33
0.0
  0
SOLID
  5
3F9
330
3E5
100
AcDbEntity
  8
TopPaste
100
AcDbTrace
 10
5.649998859999999
 20
2.99999908
 30
0.0
 11
5.34999946
 21
2.99999908
 31
0.0
 12
5.649998859999999
 22
1.60000188
 32
0.0
 13
5.34999946
 23
1.60000188
 33
0.0
  0
SOLID
  5
3FA
330
3E5
100
AcDbEntity
  8
TopPaste
100
AcDbTrace
 10
4.849995379999999
 20
1.60000188
 30
0.0
 11
5.14999478
 21
1.60000188
 31
0.0
 12
4.849995379999999
 22
2.99999908
 32
0.0
 13
5.14999478
 23
2.99999908
 33
0.0
  0
SOLID
  5
3FB
330
3E5
100
AcDbEntity
  8
TopPaste
100
AcDbTrace
 10
4.349996379999999
 20
1.60000188
 30
0.0
 11
4.64999578
 21
1.60000188
 31
0.0
 12
4.349996379999999
 22
2.99999908
 32
0.0
 13
4.64999578
 23
2.99999908
 33
0.0
  0
SOLID
  5
3FC
330
3E5
100
AcDbEntity
  8
TopPaste
100
AcDbTrace
 10
3.84999738
 20
1.60000188
 30
0.0
 11
4.149996779999999
 21
1.60000188
 31
0.0
 12
3.84999738
 22
2.99999908
 32
0.0
 13
4.149996779999999
 23
2.99999908
 33
0.0
  0
SOLID
  5
3FD
330
3E5
100
AcDbEntity
  8
TopPaste
100
AcDbTrace
 10
3.34999838
 20
1.60000188
 30
0.0
 11
3.64999778
 21
1.60000188
 31
0.0
 12
3.34999838
 22
2.99999908
 32
0.0
 13
3.64999778
 23
2.99999908
 33
0.0
  0
SOLID
  5
3FE
330
3E5
100
AcDbEntity
  8
TopPaste
100
AcDbTrace
 10
2.84999938
 20
1.60000188
 30
0.0
 11
3.14999878
 21
1.60000188
 31
0.0
 12
2.84999938
 22
2.99999908
 32
0.0
 13
3.14999878
 23
2.99999908
 33
0.0
  0
SOLID
  5
3FF
330
3E5
100
AcDbEntity
  8
TopPaste
100
AcDbTrace
 10
2.35000038
 20
1.60000188
 30
0.0
 11
2.64999978
 21
1.60000188
 31
0.0
 12
2.35000038
 22
2.99999908
 32
0.0
 13
2.64999978
 23
2.99999908
 33
0.0
  0
SOLID
  5
400
330
3E5
100
AcDbEntity
  8
TopPaste
100
AcDbTrace
 10
-0.0999998
 20
-1.59999934
 30
0.0
 11
1.90000128
 21
-1.59999934
 31
0.0
 12
-0.0999998
 22
1.39999974
 32
0.0
 13
1.90000128
 23
1.39999974
 33
0.0
  0
SOLID
  5
401
330
3E5
100
AcDbEntity
  8
TopPaste
100
AcDbTrace
 10
14.59999874
 20
-1.59999934
 30
0.0
 11
16.59999982
 21
-1.59999934
 31
0.0
 12
14.59999874
 22
1.39999974
 32
0.0
 13
16.59999982
 23
1.39999974
 33
0.0
  0
ENDBLK
  5
3E7
330
3E5
100
AcDbEntity
  8
0
100
AcDbBlockEnd
  0
BLOCK
  5
404
330
403
100
AcDbEntity
  8
0
100
AcDbBlockBegin
  2
R0402_M_97
 70
     0
 10
0.0
 20
0.0
 30
0.0
  3
R0402_M_97
  1

  0
SOLID
  5
406
330
403
100
AcDbEntity
  8
TopPaste
100
AcDbTrace
 10
-0.7111999999999999
 20
-0.254
 30
0.0
 11
-0.2032
 21
-0.254
 31
0.0
 12
-0.7111999999999999
 22
0.254
 32
0.0
 13
-0.2032
 23
0.254
 33
0.0
  0
SOLID
  5
407
330
403
100
AcDbEntity
  8
TopPaste
100
AcDbTrace
 10
0.2032
 20
-0.254
 30
0.0
 11
0.7111999999999999
 21
-0.254
 31
0.0
 12
0.2032
 22
0.254
 32
0.0
 13
0.7111999999999999
 23
0.254
 33
0.0
  0
ENDBLK
  5
405
330
403
100
AcDbEntity
  8
0
100
AcDbBlockEnd
  0
BLOCK
  5
40A
330
409
100
AcDbEntity
  8
0
100
AcDbBlockBegin
  2
R0402_M_98
 70
     0
 10
0.0
 20
0.0
 30
0.0
  3
R0402_M_98
  1

  0
SOLID
  5
40C
330
409
100
AcDbEntity
  8
TopPaste
100
AcDbTrace
 10
-0.7111999999999999
 20
-0.254
 30
0.0
 11
-0.2032
 21
-0.254
 31
0.0
 12
-0.7111999999999999
 22
0.254
 32
0.0
 13
-0.2032
 23
0.254
 33
0.0
  0
SOLID
  5
40D
330
409
100
AcDbEntity
  8
TopPaste
100
AcDbTrace
 10
0.2032
 20
-0.254
 30
0.0
 11
0.7111999999999999
 21
-0.254
 31
0.0
 12
0.2032
 22
0.254
 32
0.0
 13
0.7111999999999999
 23
0.254
 33
0.0
  0
ENDBLK
  5
40B
330
409
100
AcDbEntity
  8
0
100
AcDbBlockEnd
  0
BLOCK
  5
410
330
40F
100
AcDbEntity
  8
0
100
AcDbBlockBegin
  2
R0402_M_99
 70
     0
 10
0.0
 20
0.0
 30
0.0
  3
R0402_M_99
  1

  0
SOLID
  5
412
330
40F
100
AcDbEntity
  8
TopPaste
100
AcDbTrace
 10
-0.7111999999999999
 20
-0.254
 30
0.0
 11
-0.2032
 21
-0.254
 31
0.0
 12
-0.7111999999999999
 22
0.254
 32
0.0
 13
-0.2032
 23
0.254
 33
0.0
  0
SOLID
  5
413
330
40F
100
AcDbEntity
  8
TopPaste
100
AcDbTrace
 10
0.2032
 20
-0.254
 30
0.0
 11
0.7111999999999999
 21
-0.254
 31
0.0
 12
0.2032
 22
0.254
 32
0.0
 13
0.7111999999999999
 23
0.254
 33
0.0
  0
ENDBLK
  5
411
330
40F
100
AcDbEntity
  8
0
100
AcDbBlockEnd
  0
BLOCK
  5
416
330
415
100
AcDbEntity
  8
0
100
AcDbBlockBegin
  2
C0805_M_100
 70
     0
 10
0.0
 20
0.0
 30
0.0
  3
C0805_M_100
  1

  0
SOLID
  5
418
330
415
100
AcDbEntity
  8
TopPaste
100
AcDbTrace
 10
-0.093599
 20
-0.635
 30
0.0
 11
0.906399
 21
-0.635
 31
0.0
 12
-0.093599
 22
0.635
 32
0.0
 13
0.906399
 23
0.635
 33
0.0
  0
SOLID
  5
419
330
415
100
AcDbEntity
  8
TopPaste
100
AcDbTrace
 10
1.659001
 20
-0.635
 30
0.0
 11
2.658999
 21
-0.635
 31
0.0
 12
1.659001
 22
0.635
 32
0.0
 13
2.658999
 23
0.635
 33
0.0
  0
ENDBLK
  5
417
330
415
100
AcDbEntity
  8
0
100
AcDbBlockEnd
  0
BLOCK
  5
41C
330
41B
100
AcDbEntity
  8
0
100
AcDbBlockBegin
  2
C0402_M_101
 70
     0
 10
0.0
 20
0.0
 30
0.0
  3
C0402_M_101
  1

  0
SOLID
  5
41E
330
41B
100
AcDbEntity
  8
TopPaste
100
AcDbTrace
 10
0.2032
 20
-0.254
 30
0.0
 11
0.7111999999999999
 21
-0.254
 31
0.0
 12
0.2032
 22
0.254
 32
0.0
 13
0.7111999999999999
 23
0.254
 33
0.0
  0
SOLID
  5
41F
330
41B
100
AcDbEntity
  8
TopPaste
100
AcDbTrace
 10
-0.7111999999999999
 20
-0.254
 30
0.0
 11
-0.2032
 21
-0.254
 31
0.0
 12
-0.7111999999999999
 22
0.254
 32
0.0
 13
-0.2032
 23
0.254
 33
0.0
  0
ENDBLK
  5
41D
330
41B
100
AcDbEntity
  8
0
100
AcDbBlockEnd
  0
BLOCK
  5
422
330
421
100
AcDbEntity
  8
0
100
AcDbBlockBegin
  2
C0402_M_102
 70
     0
 10
0.0
 20
0.0
 30
0.0
  3
C0402_M_102
  1

  0
SOLID
  5
424
330
421
100
AcDbEntity
  8
TopPaste
100
AcDbTrace
 10
0.2032
 20
-0.254
 30
0.0
 11
0.7111999999999999
 21
-0.254
 31
0.0
 12
0.2032
 22
0.254
 32
0.0
 13
0.7111999999999999
 23
0.254
 33
0.0
  0
SOLID
  5
425
330
421
100
AcDbEntity
  8
TopPaste
100
AcDbTrace
 10
-0.7111999999999999
 20
-0.254
 30
0.0
 11
-0.2032
 21
-0.254
 31
0.0
 12
-0.7111999999999999
 22
0.254
 32
0.0
 13
-0.2032
 23
0.254
 33
0.0
  0
ENDBLK
  5
423
330
421
100
AcDbEntity
  8
0
100
AcDbBlockEnd
  0
BLOCK
  5
428
330
427
100
AcDbEntity
  8
0
100
AcDbBlockBegin
  2
C0805_M_103
 70
     0
 10
0.0
 20
0.0
 30
0.0
  3
C0805_M_103
  1

  0
SOLID
  5
42A
330
427
100
AcDbEntity
  8
TopPaste
100
AcDbTrace
 10
-0.093599
 20
-0.635
 30
0.0
 11
0.906399
 21
-0.635
 31
0.0
 12
-0.093599
 22
0.635
 32
0.0
 13
0.906399
 23
0.635
 33
0.0
  0
SOLID
  5
42B
330
427
100
AcDbEntity
  8
TopPaste
100
AcDbTrace
 10
1.659001
 20
-0.635
 30
0.0
 11
2.658999
 21
-0.635
 31
0.0
 12
1.659001
 22
0.635
 32
0.0
 13
2.658999
 23
0.635
 33
0.0
  0
ENDBLK
  5
429
330
427
100
AcDbEntity
  8
0
100
AcDbBlockEnd
  0
BLOCK
  5
42E
330
42D
100
AcDbEntity
  8
0
100
AcDbBlockBegin
  2
C0402_M_104
 70
     0
 10
0.0
 20
0.0
 30
0.0
  3
C0402_M_104
  1

  0
SOLID
  5
430
330
42D
100
AcDbEntity
  8
TopPaste
100
AcDbTrace
 10
0.2032
 20
-0.254
 30
0.0
 11
0.7111999999999999
 21
-0.254
 31
0.0
 12
0.2032
 22
0.254
 32
0.0
 13
0.7111999999999999
 23
0.254
 33
0.0
  0
SOLID
  5
431
330
42D
100
AcDbEntity
  8
TopPaste
100
AcDbTrace
 10
-0.7111999999999999
 20
-0.254
 30
0.0
 11
-0.2032
 21
-0.254
 31
0.0
 12
-0.7111999999999999
 22
0.254
 32
0.0
 13
-0.2032
 23
0.254
 33
0.0
  0
ENDBLK
  5
42F
330
42D
100
AcDbEntity
  8
0
100
AcDbBlockEnd
  0
BLOCK
  5
434
330
433
100
AcDbEntity
  8
0
100
AcDbBlockBegin
  2
C0402_M_105
 70
     0
 10
0.0
 20
0.0
 30
0.0
  3
C0402_M_105
  1

  0
SOLID
  5
436
330
433
100
AcDbEntity
  8
TopPaste
100
AcDbTrace
 10
0.2032
 20
-0.254
 30
0.0
 11
0.7111999999999999
 21
-0.254
 31
0.0
 12
0.2032
 22
0.254
 32
0.0
 13
0.7111999999999999
 23
0.254
 33
0.0
  0
SOLID
  5
437
330
433
100
AcDbEntity
  8
TopPaste
100
AcDbTrace
 10
-0.7111999999999999
 20
-0.254
 30
0.0
 11
-0.2032
 21
-0.254
 31
0.0
 12
-0.7111999999999999
 22
0.254
 32
0.0
 13
-0.2032
 23
0.254
 33
0.0
  0
ENDBLK
  5
435
330
433
100
AcDbEntity
  8
0
100
AcDbBlockEnd
  0
BLOCK
  5
43A
330
439
100
AcDbEntity
  8
0
100
AcDbBlockBegin
  2
C0402_M_106
 70
     0
 10
0.0
 20
0.0
 30
0.0
  3
C0402_M_106
  1

  0
SOLID
  5
43C
330
439
100
AcDbEntity
  8
TopPaste
100
AcDbTrace
 10
0.2032
 20
-0.254
 30
0.0
 11
0.7111999999999999
 21
-0.254
 31
0.0
 12
0.2032
 22
0.254
 32
0.0
 13
0.7111999999999999
 23
0.254
 33
0.0
  0
SOLID
  5
43D
330
439
100
AcDbEntity
  8
TopPaste
100
AcDbTrace
 10
-0.7111999999999999
 20
-0.254
 30
0.0
 11
-0.2032
 21
-0.254
 31
0.0
 12
-0.7111999999999999
 22
0.254
 32
0.0
 13
-0.2032
 23
0.254
 33
0.0
  0
ENDBLK
  5
43B
330
439
100
AcDbEntity
  8
0
100
AcDbBlockEnd
  0
BLOCK
  5
440
330
43F
100
AcDbEntity
  8
0
100
AcDbBlockBegin
  2
C0402_M_107
 70
     0
 10
0.0
 20
0.0
 30
0.0
  3
C0402_M_107
  1

  0
SOLID
  5
442
330
43F
100
AcDbEntity
  8
TopPaste
100
AcDbTrace
 10
0.2032
 20
-0.254
 30
0.0
 11
0.7111999999999999
 21
-0.254
 31
0.0
 12
0.2032
 22
0.254
 32
0.0
 13
0.7111999999999999
 23
0.254
 33
0.0
  0
SOLID
  5
443
330
43F
100
AcDbEntity
  8
TopPaste
100
AcDbTrace
 10
-0.7111999999999999
 20
-0.254
 30
0.0
 11
-0.2032
 21
-0.254
 31
0.0
 12
-0.7111999999999999
 22
0.254
 32
0.0
 13
-0.2032
 23
0.254
 33
0.0
  0
ENDBLK
  5
441
330
43F
100
AcDbEntity
  8
0
100
AcDbBlockEnd
  0
BLOCK
  5
446
330
445
100
AcDbEntity
  8
0
100
AcDbBlockBegin
  2
C0402_M_108
 70
     0
 10
0.0
 20
0.0
 30
0.0
  3
C0402_M_108
  1

  0
SOLID
  5
448
330
445
100
AcDbEntity
  8
TopPaste
100
AcDbTrace
 10
0.2032
 20
-0.254
 30
0.0
 11
0.7111999999999999
 21
-0.254
 31
0.0
 12
0.2032
 22
0.254
 32
0.0
 13
0.7111999999999999
 23
0.254
 33
0.0
  0
SOLID
  5
449
330
445
100
AcDbEntity
  8
TopPaste
100
AcDbTrace
 10
-0.7111999999999999
 20
-0.254
 30
0.0
 11
-0.2032
 21
-0.254
 31
0.0
 12
-0.7111999999999999
 22
0.254
 32
0.0
 13
-0.2032
 23
0.254
 33
0.0
  0
ENDBLK
  5
447
330
445
100
AcDbEntity
  8
0
100
AcDbBlockEnd
  0
BLOCK
  5
44C
330
44B
100
AcDbEntity
  8
0
100
AcDbBlockBegin
  2
C0402_M_109
 70
     0
 10
0.0
 20
0.0
 30
0.0
  3
C0402_M_109
  1

  0
SOLID
  5
44E
330
44B
100
AcDbEntity
  8
TopPaste
100
AcDbTrace
 10
0.2032
 20
-0.254
 30
0.0
 11
0.7111999999999999
 21
-0.254
 31
0.0
 12
0.2032
 22
0.254
 32
0.0
 13
0.7111999999999999
 23
0.254
 33
0.0
  0
SOLID
  5
44F
330
44B
100
AcDbEntity
  8
TopPaste
100
AcDbTrace
 10
-0.7111999999999999
 20
-0.254
 30
0.0
 11
-0.2032
 21
-0.254
 31
0.0
 12
-0.7111999999999999
 22
0.254
 32
0.0
 13
-0.2032
 23
0.254
 33
0.0
  0
ENDBLK
  5
44D
330
44B
100
AcDbEntity
  8
0
100
AcDbBlockEnd
  0
BLOCK
  5
452
330
451
100
AcDbEntity
  8
0
100
AcDbBlockBegin
  2
C0805_M_110
 70
     0
 10
0.0
 20
0.0
 30
0.0
  3
C0805_M_110
  1

  0
SOLID
  5
454
330
451
100
AcDbEntity
  8
TopPaste
100
AcDbTrace
 10
-0.093599
 20
-0.635
 30
0.0
 11
0.906399
 21
-0.635
 31
0.0
 12
-0.093599
 22
0.635
 32
0.0
 13
0.906399
 23
0.635
 33
0.0
  0
SOLID
  5
455
330
451
100
AcDbEntity
  8
TopPaste
100
AcDbTrace
 10
1.659001
 20
-0.635
 30
0.0
 11
2.658999
 21
-0.635
 31
0.0
 12
1.659001
 22
0.635
 32
0.0
 13
2.658999
 23
0.635
 33
0.0
  0
ENDBLK
  5
453
330
451
100
AcDbEntity
  8
0
100
AcDbBlockEnd
  0
BLOCK
  5
458
330
457
100
AcDbEntity
  8
0
100
AcDbBlockBegin
  2
C0603_M_111
 70
     0
 10
0.0
 20
0.0
 30
0.0
  3
C0603_M_111
  1

  0
SOLID
  5
45A
330
457
100
AcDbEntity
  8
TopPaste
100
AcDbTrace
 10
1.65560248
 20
-0.4064
 30
0.0
 11
1.65560248
 21
0.4064
 31
0.0
 12
0.9444024799999999
 22
-0.4064
 32
0.0
 13
0.9444024799999999
 23
0.4064
 33
0.0
  0
SOLID
  5
45B
330
457
100
AcDbEntity
  8
TopPaste
100
AcDbTrace
 10
0.3556
 20
-0.4064
 30
0.0
 11
0.3556
 21
0.4064
 31
0.0
 12
-0.3556
 22
-0.4064
 32
0.0
 13
-0.3556
 23
0.4064
 33
0.0
  0
ENDBLK
  5
459
330
457
100
AcDbEntity
  8
0
100
AcDbBlockEnd
  0
BLOCK
  5
45E
330
45D
100
AcDbEntity
  8
0
100
AcDbBlockBegin
  2
C0402_M_112
 70
     0
 10
0.0
 20
0.0
 30
0.0
  3
C0402_M_112
  1

  0
SOLID
  5
460
330
45D
100
AcDbEntity
  8
TopPaste
100
AcDbTrace
 10
0.2032
 20
-0.254
 30
0.0
 11
0.7111999999999999
 21
-0.254
 31
0.0
 12
0.2032
 22
0.254
 32
0.0
 13
0.7111999999999999
 23
0.254
 33
0.0
  0
SOLID
  5
461
330
45D
100
AcDbEntity
  8
TopPaste
100
AcDbTrace
 10
-0.7111999999999999
 20
-0.254
 30
0.0
 11
-0.2032
 21
-0.254
 31
0.0
 12
-0.7111999999999999
 22
0.254
 32
0.0
 13
-0.2032
 23
0.254
 33
0.0
  0
ENDBLK
  5
45F
330
45D
100
AcDbEntity
  8
0
100
AcDbBlockEnd
  0
ENDSEC
  0
SECTION
  2
ENTITIES
  0
LWPOLYLINE
  5
70
330
1F
100
AcDbEntity
  8
KeepOutLayer
100
AcDbPolyline
 90
        2
 70
     0
 43
0.0127
 10
48.15839999999999
 20
61.849
 10
112.7506
 20
61.849
  0
LWPOLYLINE
  5
71
330
1F
100
AcDbEntity
  8
KeepOutLayer
100
AcDbPolyline
 90
        2
 70
     1
 43
0.00635
 10
48.15522499999999
 20
61.849
 42
1.0
 10
48.161575
 20
61.849
 42
1.0
  0
LWPOLYLINE
  5
72
330
1F
100
AcDbEntity
  8
KeepOutLayer
100
AcDbPolyline
 90
        2
 70
     1
 43
0.00635
 10
112.747425
 20
61.849
 42
1.0
 10
112.753775
 20
61.849
 42
1.0
  0
LWPOLYLINE
  5
73
330
1F
100
AcDbEntity
  8
KeepOutLayer
100
AcDbPolyline
 90
        2
 70
     0
 43
0.0127
 10
112.7506
 20
61.849
 10
113.56799994
 20
62.66639993999999
  0
LWPOLYLINE
  5
74
330
1F
100
AcDbEntity
  8
KeepOutLayer
100
AcDbPolyline
 90
        2
 70
     1
 43
0.00635
 10
112.747425
 20
61.849
 42
1.0
 10
112.753775
 20
61.849
 42
1.0
  0
LWPOLYLINE
  5
75
330
1F
100
AcDbEntity
  8
KeepOutLayer
100
AcDbPolyline
 90
        2
 70
     1
 43
0.00635
 10
113.56482494
 20
62.66639993999999
 42
1.0
 10
113.57117494
 20
62.66639993999999
 42
1.0
  0
LWPOLYLINE
  5
76
330
1F
100
AcDbEntity
  8
KeepOutLayer
100
AcDbPolyline
 90
        2
 70
     0
 43
0.0127
 10
113.56799994
 20
62.66639993999999
 10
113.56799994
 20
64.389
  0
LWPOLYLINE
  5
77
330
1F
100
AcDbEntity
  8
KeepOutLayer
100
AcDbPolyline
 90
        2
 70
     1
 43
0.00635
 10
113.56482494
 20
62.66639993999999
 42
1.0
 10
113.57117494
 20
62.66639993999999
 42
1.0
  0
LWPOLYLINE
  5
78
330
1F
100
AcDbEntity
  8
KeepOutLayer
100
AcDbPolyline
 90
        2
 70
     1
 43
0.00635
 10
113.56482494
 20
64.389
 42
1.0
 10
113.57117494
 20
64.389
 42
1.0
  0
LWPOLYLINE
  5
79
330
1F
100
AcDbEntity
  8
KeepOutLayer
100
AcDbPolyline
 90
        2
 70
     0
 43
0.0127
 10
47.498
 20
62.50939999999999
 10
48.15839999999999
 20
61.849
  0
LWPOLYLINE
  5
7A
330
1F
100
AcDbEntity
  8
KeepOutLayer
100
AcDbPolyline
 90
        2
 70
     1
 43
0.00635
 10
47.494825
 20
62.50939999999999
 42
1.0
 10
47.501175
 20
62.50939999999999
 42
1.0
  0
LWPOLYLINE
  5
7B
330
1F
100
AcDbEntity
  8
KeepOutLayer
100
AcDbPolyline
 90
        2
 70
     1
 43
0.00635
 10
48.15522499999999
 20
61.849
 42
1.0
 10
48.161575
 20
61.849
 42
1.0
  0
LWPOLYLINE
  5
7C
330
1F
100
AcDbEntity
  8
KeepOutLayer
100
AcDbPolyline
 90
        2
 70
     0
 43
0.0127
 10
47.498
 20
62.50939999999999
 10
47.498
 20
114.4016
  0
LWPOLYLINE
  5
7D
330
1F
100
AcDbEntity
  8
KeepOutLayer
100
AcDbPolyline
 90
        2
 70
     1
 43
0.00635
 10
47.494825
 20
62.50939999999999
 42
1.0
 10
47.501175
 20
62.50939999999999
 42
1.0
  0
LWPOLYLINE
  5
7E
330
1F
100
AcDbEntity
  8
KeepOutLayer
100
AcDbPolyline
 90
        2
 70
     1
 43
0.00635
 10
47.494825
 20
114.4016
 42
1.0
 10
47.501175
 20
114.4016
 42
1.0
  0
LWPOLYLINE
  5
7F
330
1F
100
AcDbEntity
  8
KeepOutLayer
100
AcDbPolyline
 90
        2
 70
     0
 43
0.0127
 10
47.498
 20
114.4016
 10
48.32387337999999
 20
115.22747338
  0
LWPOLYLINE
  5
80
330
1F
100
AcDbEntity
  8
KeepOutLayer
100
AcDbPolyline
 90
        2
 70
     1
 43
0.00635
 10
47.494825
 20
114.4016
 42
1.0
 10
47.501175
 20
114.4016
 42
1.0
  0
LWPOLYLINE
  5
81
330
1F
100
AcDbEntity
  8
KeepOutLayer
100
AcDbPolyline
 90
        2
 70
     1
 43
0.00635
 10
48.32069838
 20
115.22747338
 42
1.0
 10
48.32704837999999
 20
115.22747338
 42
1.0
  0
LWPOLYLINE
  5
82
330
1F
100
AcDbEntity
  8
KeepOutLayer
100
AcDbPolyline
 90
        2
 70
     0
 43
0.0127
 10
48.32387337999999
 20
115.22747338
 10
112.00320754
 20
115.22747338
  0
LWPOLYLINE
  5
83
330
1F
100
AcDbEntity
  8
KeepOutLayer
100
AcDbPolyline
 90
        2
 70
     1
 43
0.00635
 10
48.32069838
 20
115.22747338
 42
1.0
 10
48.32704837999999
 20
115.22747338
 42
1.0
  0
LWPOLYLINE
  5
84
330
1F
100
AcDbEntity
  8
KeepOutLayer
100
AcDbPolyline
 90
        2
 70
     1
 43
0.00635
 10
112.00003254
 20
115.22747338
 42
1.0
 10
112.00638254
 20
115.22747338
 42
1.0
  0
LWPOLYLINE
  5
85
330
1F
100
AcDbEntity
  8
KeepOutLayer
100
AcDbPolyline
 90
        2
 70
     0
 43
0.0127
 10
113.56799994
 20
64.389
 10
113.56799994
 20
64.44758255999999
  0
LWPOLYLINE
  5
86
330
1F
100
AcDbEntity
  8
KeepOutLayer
100
AcDbPolyline
 90
        2
 70
     1
 43
0.00635
 10
113.56482494
 20
64.389
 42
1.0
 10
113.57117494
 20
64.389
 42
1.0
  0
LWPOLYLINE
  5
87
330
1F
100
AcDbEntity
  8
KeepOutLayer
100
AcDbPolyline
 90
        2
 70
     1
 43
0.00635
 10
113.56482494
 20
64.44758255999999
 42
1.0
 10
113.57117494
 20
64.44758255999999
 42
1.0
  0
LWPOLYLINE
  5
88
330
1F
100
AcDbEntity
  8
KeepOutLayer
100
AcDbPolyline
 90
        2
 70
     0
 43
0.0127
 10
113.56799994
 20
64.44758255999999
 10
116.04800006
 20
66.92758268
  0
LWPOLYLINE
  5
89
330
1F
100
AcDbEntity
  8
KeepOutLayer
100
AcDbPolyline
 90
        2
 70
     1
 43
0.00635
 10
113.56482494
 20
64.44758255999999
 42
1.0
 10
113.57117494
 20
64.44758255999999
 42
1.0
  0
LWPOLYLINE
  5
8A
330
1F
100
AcDbEntity
  8
KeepOutLayer
100
AcDbPolyline
 90
        2
 70
     1
 43
0.00635
 10
116.04482506
 20
66.92758268
 42
1.0
 10
116.05117506
 20
66.92758268
 42
1.0
  0
LWPOLYLINE
  5
8B
330
1F
100
AcDbEntity
  8
KeepOutLayer
100
AcDbPolyline
 90
        2
 70
     0
 43
0.0127
 10
116.04800006
 20
66.92758268
 10
116.04800006
 20
71.9074
  0
LWPOLYLINE
  5
8C
330
1F
100
AcDbEntity
  8
KeepOutLayer
100
AcDbPolyline
 90
        2
 70
     1
 43
0.00635
 10
116.04482506
 20
66.92758268
 42
1.0
 10
116.05117506
 20
66.92758268
 42
1.0
  0
LWPOLYLINE
  5
8D
330
1F
100
AcDbEntity
  8
KeepOutLayer
100
AcDbPolyline
 90
        2
 70
     1
 43
0.00635
 10
116.04482506
 20
71.9074
 42
1.0
 10
116.05117506
 20
71.9074
 42
1.0
  0
LWPOLYLINE
  5
8E
330
1F
100
AcDbEntity
  8
KeepOutLayer
100
AcDbPolyline
 90
        2
 70
     0
 43
0.0127
 10
115.31140006
 20
72.64399999999999
 10
116.04800006
 20
71.9074
  0
LWPOLYLINE
  5
8F
330
1F
100
AcDbEntity
  8
KeepOutLayer
100
AcDbPolyline
 90
        2
 70
     1
 43
0.00635
 10
115.30822506
 20
72.64399999999999
 42
1.0
 10
115.31457506
 20
72.64399999999999
 42
1.0
  0
LWPOLYLINE
  5
90
330
1F
100
AcDbEntity
  8
KeepOutLayer
100
AcDbPolyline
 90
        2
 70
     1
 43
0.00635
 10
116.04482506
 20
71.9074
 42
1.0
 10
116.05117506
 20
71.9074
 42
1.0
  0
LWPOLYLINE
  5
91
330
1F
100
AcDbEntity
  8
KeepOutLayer
100
AcDbPolyline
 90
        2
 70
     0
 43
0.0127
 10
109.9312
 20
72.64399999999999
 10
115.31140006
 20
72.64399999999999
  0
LWPOLYLINE
  5
92
330
1F
100
AcDbEntity
  8
KeepOutLayer
100
AcDbPolyline
 90
        2
 70
     1
 43
0.00635
 10
109.928025
 20
72.64399999999999
 42
1.0
 10
109.934375
 20
72.64399999999999
 42
1.0
  0
LWPOLYLINE
  5
93
330
1F
100
AcDbEntity
  8
KeepOutLayer
100
AcDbPolyline
 90
        2
 70
     1
 43
0.00635
 10
115.30822506
 20
72.64399999999999
 42
1.0
 10
115.31457506
 20
72.64399999999999
 42
1.0
  0
LWPOLYLINE
  5
94
330
1F
100
AcDbEntity
  8
KeepOutLayer
100
AcDbPolyline
 90
        2
 70
     0
 43
0.0127
 10
109.347
 20
73.2282
 10
109.9312
 20
72.64399999999999
  0
LWPOLYLINE
  5
95
330
1F
100
AcDbEntity
  8
KeepOutLayer
100
AcDbPolyline
 90
        2
 70
     1
 43
0.00635
 10
109.343825
 20
73.2282
 42
1.0
 10
109.350175
 20
73.2282
 42
1.0
  0
LWPOLYLINE
  5
96
330
1F
100
AcDbEntity
  8
KeepOutLayer
100
AcDbPolyline
 90
        2
 70
     1
 43
0.00635
 10
109.928025
 20
72.64399999999999
 42
1.0
 10
109.934375
 20
72.64399999999999
 42
1.0
  0
LWPOLYLINE
  5
97
330
1F
100
AcDbEntity
  8
KeepOutLayer
100
AcDbPolyline
 90
        2
 70
     0
 43
0.0127
 10
109.347
 20
73.2282
 10
109.347
 20
93.3958
  0
LWPOLYLINE
  5
98
330
1F
100
AcDbEntity
  8
KeepOutLayer
100
AcDbPolyline
 90
        2
 70
     1
 43
0.00635
 10
109.343825
 20
73.2282
 42
1.0
 10
109.350175
 20
73.2282
 42
1.0
  0
LWPOLYLINE
  5
99
330
1F
100
AcDbEntity
  8
KeepOutLayer
100
AcDbPolyline
 90
        2
 70
     1
 43
0.00635
 10
109.343825
 20
93.3958
 42
1.0
 10
109.350175
 20
93.3958
 42
1.0
  0
LWPOLYLINE
  5
9A
330
1F
100
AcDbEntity
  8
KeepOutLayer
100
AcDbPolyline
 90
        2
 70
     0
 43
0.0127
 10
109.347
 20
93.3958
 10
109.8804
 20
93.9292
  0
LWPOLYLINE
  5
9B
330
1F
100
AcDbEntity
  8
KeepOutLayer
100
AcDbPolyline
 90
        2
 70
     1
 43
0.00635
 10
109.343825
 20
93.3958
 42
1.0
 10
109.350175
 20
93.3958
 42
1.0
  0
LWPOLYLINE
  5
9C
330
1F
100
AcDbEntity
  8
KeepOutLayer
100
AcDbPolyline
 90
        2
 70
     1
 43
0.00635
 10
109.877225
 20
93.9292
 42
1.0
 10
109.883575
 20
93.9292
 42
1.0
  0
LWPOLYLINE
  5
9D
330
1F
100
AcDbEntity
  8
KeepOutLayer
100
AcDbPolyline
 90
        2
 70
     0
 43
0.0127
 10
109.8804
 20
93.9292
 10
115.20980006
 20
93.9292
  0
LWPOLYLINE
  5
9E
330
1F
100
AcDbEntity
  8
KeepOutLayer
100
AcDbPolyline
 90
        2
 70
     1
 43
0.00635
 10
109.877225
 20
93.9292
 42
1.0
 10
109.883575
 20
93.9292
 42
1.0
  0
LWPOLYLINE
  5
9F
330
1F
100
AcDbEntity
  8
KeepOutLayer
100
AcDbPolyline
 90
        2
 70
     1
 43
0.00635
 10
115.20662506
 20
93.9292
 42
1.0
 10
115.21297506
 20
93.9292
 42
1.0
  0
LWPOLYLINE
  5
A0
330
1F
100
AcDbEntity
  8
KeepOutLayer
100
AcDbPolyline
 90
        2
 70
     0
 43
0.0127
 10
115.20980006
 20
93.9292
 10
116.04800006
 20
94.7674
  0
LWPOLYLINE
  5
A1
330
1F
100
AcDbEntity
  8
KeepOutLayer
100
AcDbPolyline
 90
        2
 70
     1
 43
0.00635
 10
115.20662506
 20
93.9292
 42
1.0
 10
115.21297506
 20
93.9292
 42
1.0
  0
LWPOLYLINE
  5
A2
330
1F
100
AcDbEntity
  8
KeepOutLayer
100
AcDbPolyline
 90
        2
 70
     1
 43
0.00635
 10
116.04482506
 20
94.7674
 42
1.0
 10
116.05117506
 20
94.7674
 42
1.0
  0
LWPOLYLINE
  5
A3
330
1F
100
AcDbEntity
  8
KeepOutLayer
100
AcDbPolyline
 90
        2
 70
     0
 43
0.0127
 10
116.04800006
 20
94.7674
 10
116.04800006
 20
99.695
  0
LWPOLYLINE
  5
A4
330
1F
100
AcDbEntity
  8
KeepOutLayer
100
AcDbPolyline
 90
        2
 70
     1
 43
0.00635
 10
116.04482506
 20
94.7674
 42
1.0
 10
116.05117506
 20
94.7674
 42
1.0
  0
LWPOLYLINE
  5
A5
330
1F
100
AcDbEntity
  8
KeepOutLayer
100
AcDbPolyline
 90
        2
 70
     1
 43
0.00635
 10
116.04482506
 20
99.695
 42
1.0
 10
116.05117506
 20
99.695
 42
1.0
  0
LWPOLYLINE
  5
A6
330
1F
100
AcDbEntity
  8
KeepOutLayer
100
AcDbPolyline
 90
        2
 70
     0
 43
0.0127
 10
113.56799994
 20
102.17500012
 10
116.04800006
 20
99.695
  0
LWPOLYLINE
  5
A7
330
1F
100
AcDbEntity
  8
KeepOutLayer
100
AcDbPolyline
 90
        2
 70
     1
 43
0.00635
 10
113.56482494
 20
102.17500012
 42
1.0
 10
113.57117494
 20
102.17500012
 42
1.0
  0
LWPOLYLINE
  5
A8
330
1F
100
AcDbEntity
  8
KeepOutLayer
100
AcDbPolyline
 90
        2
 70
     1
 43
0.00635
 10
116.04482506
 20
99.695
 42
1.0
 10
116.05117506
 20
99.695
 42
1.0
  0
LWPOLYLINE
  5
A9
330
1F
100
AcDbEntity
  8
KeepOutLayer
100
AcDbPolyline
 90
        2
 70
     0
 43
0.0127
 10
113.56799994
 20
102.17500012
 10
113.56799994
 20
113.66268098
  0
LWPOLYLINE
  5
AA
330
1F
100
AcDbEntity
  8
KeepOutLayer
100
AcDbPolyline
 90
        2
 70
     1
 43
0.00635
 10
113.56482494
 20
102.17500012
 42
1.0
 10
113.57117494
 20
102.17500012
 42
1.0
  0
LWPOLYLINE
  5
AB
330
1F
100
AcDbEntity
  8
KeepOutLayer
100
AcDbPolyline
 90
        2
 70
     1
 43
0.00635
 10
113.56482494
 20
113.66268098
 42
1.0
 10
113.57117494
 20
113.66268098
 42
1.0
  0
LWPOLYLINE
  5
AC
330
1F
100
AcDbEntity
  8
KeepOutLayer
100
AcDbPolyline
 90
        2
 70
     0
 43
0.0127
 10
112.00320754
 20
115.22747338
 10
113.56799994
 20
113.66268098
  0
LWPOLYLINE
  5
AD
330
1F
100
AcDbEntity
  8
KeepOutLayer
100
AcDbPolyline
 90
        2
 70
     1
 43
0.00635
 10
112.00003254
 20
115.22747338
 42
1.0
 10
112.00638254
 20
115.22747338
 42
1.0
  0
LWPOLYLINE
  5
AE
330
1F
100
AcDbEntity
  8
KeepOutLayer
100
AcDbPolyline
 90
        2
 70
     1
 43
0.00635
 10
113.56482494
 20
113.66268098
 42
1.0
 10
113.57117494
 20
113.66268098
 42
1.0
  0
LWPOLYLINE
  5
AF
330
1F
100
AcDbEntity
  8
KeepOutLayer
100
AcDbPolyline
 90
        2
 70
     1
 43
0.0127
 10
63.05549999999999
 20
64.389
 42
1.0
 10
59.8805
 20
64.389
 42
1.0
  0
LWPOLYLINE
  5
B0
330
1F
100
AcDbEntity
  8
KeepOutLayer
100
AcDbPolyline
 90
        2
 70
     1
 43
0.00635
 10
63.052325
 20
64.389
 42
1.0
 10
63.058675
 20
64.389
 42
1.0
  0
LWPOLYLINE
  5
B1
330
1F
100
AcDbEntity
  8
KeepOutLayer
100
AcDbPolyline
 90
        2
 70
     1
 43
0.00635
 10
59.877325
 20
64.389
 42
1.0
 10
59.883675
 20
64.389
 42
1.0
  0
LWPOLYLINE
  5
B2
330
1F
100
AcDbEntity
  8
KeepOutLayer
100
AcDbPolyline
 90
        2
 70
     1
 43
0.0127
 10
115.15549994
 20
97.40899999999999
 42
1.0
 10
111.98049994
 20
97.40899999999999
 42
1.0
  0
LWPOLYLINE
  5
B3
330
1F
100
AcDbEntity
  8
KeepOutLayer
100
AcDbPolyline
 90
        2
 70
     1
 43
0.00635
 10
115.15232494
 20
97.40899999999999
 42
1.0
 10
115.15867494
 20
97.40899999999999
 42
1.0
  0
LWPOLYLINE
  5
B4
330
1F
100
AcDbEntity
  8
KeepOutLayer
100
AcDbPolyline
 90
        2
 70
     1
 43
0.00635
 10
111.97732494
 20
97.40899999999999
 42
1.0
 10
111.98367494
 20
97.40899999999999
 42
1.0
  0
LWPOLYLINE
  5
B5
330
1F
100
AcDbEntity
  8
KeepOutLayer
100
AcDbPolyline
 90
        2
 70
     1
 43
0.0127
 10
115.15549994
 20
69.469
 42
1.0
 10
111.98049994
 20
69.469
 42
1.0
  0
LWPOLYLINE
  5
B6
330
1F
100
AcDbEntity
  8
KeepOutLayer
100
AcDbPolyline
 90
        2
 70
     1
 43
0.00635
 10
115.15232494
 20
69.469
 42
1.0
 10
115.15867494
 20
69.469
 42
1.0
  0
LWPOLYLINE
  5
B7
330
1F
100
AcDbEntity
  8
KeepOutLayer
100
AcDbPolyline
 90
        2
 70
     1
 43
0.00635
 10
111.97732494
 20
69.469
 42
1.0
 10
111.98367494
 20
69.469
 42
1.0
  0
LWPOLYLINE
  5
B8
330
1F
100
AcDbEntity
  8
KeepOutLayer
100
AcDbPolyline
 90
        2
 70
     1
 43
0.0127
 10
64.3509
 20
112.649
 42
1.0
 10
61.1759
 20
112.649
 42
1.0
  0
LWPOLYLINE
  5
B9
330
1F
100
AcDbEntity
  8
KeepOutLayer
100
AcDbPolyline
 90
        2
 70
     1
 43
0.00635
 10
64.347725
 20
112.649
 42
1.0
 10
64.354075
 20
112.649
 42
1.0
  0
LWPOLYLINE
  5
BA
330
1F
100
AcDbEntity
  8
KeepOutLayer
100
AcDbPolyline
 90
        2
 70
     1
 43
0.00635
 10
61.17272499999999
 20
112.649
 42
1.0
 10
61.17907499999999
 20
112.649
 42
1.0
  0
INSERT
  5
C0
330
1F
100
AcDbEntity
  8
0
100
AcDbBlockReference
  2
C0805_M_1
 10
79.502
 20
76.73339999999999
 30
0.0
 50
90.0
  0
INSERT
  5
C6
330
1F
100
AcDbEntity
  8
0
100
AcDbBlockReference
  2
C0402_M_2
 10
99.6442
 20
98.39959999999999
 30
0.0
 50
270.0
  0
INSERT
  5
CD
330
1F
100
AcDbEntity
  8
0
100
AcDbBlockReference
  2
SOT_23_3_3
 10
97.2566
 20
98.9584
 30
0.0
 50
180.0
  0
INSERT
  5
D3
330
1F
100
AcDbEntity
  8
0
100
AcDbBlockReference
  2
R0402_M_4
 10
72.9234
 20
80.4672
 30
0.0
 50
270.0
  0
INSERT
  5
D9
330
1F
100
AcDbEntity
  8
0
100
AcDbBlockReference
  2
C0402_M_5
 10
72.9234
 20
78.79079999999999
 30
0.0
 50
270.0
  0
INSERT
  5
E2
330
1F
100
AcDbEntity
  8
0
100
AcDbBlockReference
  2
SOT23_5___6
 10
70.96759999999999
 20
78.0542
 30
0.0
  0
INSERT
  5
E8
330
1F
100
AcDbEntity
  8
0
100
AcDbBlockReference
  2
R0402_M_7
 10
70.485
 20
74.98079999999999
 30
0.0
 50
360.0
  0
INSERT
  5
EE
330
1F
100
AcDbEntity
  8
0
100
AcDbBlockReference
  2
R0402_M_8
 10
70.47740032
 20
74.2188
 30
0.0
 50
180.0
  0
INSERT
  5
F4
330
1F
100
AcDbEntity
  8
0
100
AcDbBlockReference
  2
C0402_M_9
 10
70.485
 20
75.7174
 30
0.0
 50
360.0
  0
INSERT
  5
FA
330
1F
100
AcDbEntity
  8
0
100
AcDbBlockReference
  2
C0402_M_10
 10
71.88199999999999
 20
75.2602
 30
0.0
 50
270.0
  0
INSERT
  5
100
330
1F
100
AcDbEntity
  8
0
100
AcDbBlockReference
  2
R0402_M_11
 10
72.05988636
 20
73.01858396
 30
0.0
 50
360.0
  0
INSERT
  5
106
330
1F
100
AcDbEntity
  8
0
100
AcDbBlockReference
  2
R0402_M_12
 10
72.05988636
 20
71.90098395999999
 30
0.0
 50
360.0
  0
INSERT
  5
10C
330
1F
100
AcDbEntity
  8
0
100
AcDbBlockReference
  2
0603_LED_13
 10
69.97699999999999
 20
73.0123
 30
0.0
 50
180.0
  0
INSERT
  5
112
330
1F
100
AcDbEntity
  8
0
100
AcDbBlockReference
  2
0603_LED_14
 10
69.97717272
 20
71.85645776
 30
0.0
 50
180.0
  0
INSERT
  5
162
330
1F
100
AcDbEntity
  8
0
100
AcDbBlockReference
  2
K210______15
 10
62.738
 20
108.585
 30
0.0
 50
270.0
  0
INSERT
  5
16A
330
1F
100
AcDbEntity
  8
0
100
AcDbBlockReference
  2
1_25MM_SMT_2P_16
 10
69.74839999999999
 20
66.8274
 30
0.0
 50
180.0
  0
INSERT
  5
170
330
1F
100
AcDbEntity
  8
0
100
AcDbBlockReference
  2
SOD_882_17
 10
61.1632
 20
104.2924
 30
0.0
 50
270.0
  0
INSERT
  5
176
330
1F
100
AcDbEntity
  8
0
100
AcDbBlockReference
  2
SOD_882_18
 10
56.36259999999999
 20
66.53339754
 30
0.0
 50
90.0
  0
INSERT
  5
17C
330
1F
100
AcDbEntity
  8
0
100
AcDbBlockReference
  2
SOD_882_19
 10
56.36259999999999
 20
68.4784
 30
0.0
 50
90.0
  0
INSERT
  5
182
330
1F
100
AcDbEntity
  8
0
100
AcDbBlockReference
  2
SOD_882_20
 10
56.36259999999999
 20
70.51039999999999
 30
0.0
 50
270.0
  0
INSERT
  5
19A
330
1F
100
AcDbEntity
  8
0
100
AcDbBlockReference
  2
TSSOP_20_21
 10
64.14380109999999
 20
67.35159503999999
 30
0.0
 50
90.0
  0
INSERT
  5
1A0
330
1F
100
AcDbEntity
  8
0
100
AcDbBlockReference
  2
R0402_M_22
 10
72.0598
 20
69.6468
 30
0.0
 50
360.0
  0
INSERT
  5
1A6
330
1F
100
AcDbEntity
  8
0
100
AcDbBlockReference
  2
R0402_M_23
 10
72.05988636
 20
70.75798395999999
 30
0.0
 50
360.0
  0
INSERT
  5
1AC
330
1F
100
AcDbEntity
  8
0
100
AcDbBlockReference
  2
R0402_M_24
 10
68.0974
 20
70.0786
 30
0.0
 50
270.0
  0
INSERT
  5
1B2
330
1F
100
AcDbEntity
  8
0
100
AcDbBlockReference
  2
R0402_M_25
 10
66.3702
 20
70.0786
 30
0.0
 50
90.0
  0
INSERT
  5
1B8
330
1F
100
AcDbEntity
  8
0
100
AcDbBlockReference
  2
R0402_M_26
 10
68.0974
 20
72.0598
 30
0.0
 50
270.0
  0
INSERT
  5
1BE
330
1F
100
AcDbEntity
  8
0
100
AcDbBlockReference
  2
R0402_M_27
 10
66.34479999999999
 20
72.0598
 30
0.0
 50
90.0
  0
INSERT
  5
1C4
330
1F
100
AcDbEntity
  8
0
100
AcDbBlockReference
  2
0603_LED_28
 10
69.97708636
 20
69.65308396
 30
0.0
 50
180.0
  0
INSERT
  5
1CA
330
1F
100
AcDbEntity
  8
0
100
AcDbBlockReference
  2
0603_LED_29
 10
69.97717272
 20
70.73886792
 30
0.0
 50
180.0
  0
INSERT
  5
1D0
330
1F
100
AcDbEntity
  8
0
100
AcDbBlockReference
  2
C0402_M_30
 10
67.18299999999999
 20
70.0786
 30
0.0
 50
90.0
  0
INSERT
  5
1D6
330
1F
100
AcDbEntity
  8
0
100
AcDbBlockReference
  2
C0402_M_31
 10
65.532
 20
70.0786
 30
0.0
 50
270.0
  0
INSERT
  5
1DC
330
1F
100
AcDbEntity
  8
0
100
AcDbBlockReference
  2
C0402_M_32
 10
67.1576
 20
72.0598
 30
0.0
 50
90.0
  0
INSERT
  5
1E2
330
1F
100
AcDbEntity
  8
0
100
AcDbBlockReference
  2
C0402_M_33
 10
65.532
 20
72.0598
 30
0.0
 50
270.0
  0
INSERT
  5
1E8
330
1F
100
AcDbEntity
  8
0
100
AcDbBlockReference
  2
C0402_M_34
 10
57.27500864
 20
67.056
 30
0.0
 50
270.0
  0
INSERT
  5
1EE
330
1F
100
AcDbEntity
  8
0
100
AcDbBlockReference
  2
C0805_M_35
 10
56.261
 20
107.061
 30
0.0
 50
180.0
  0
INSERT
  5
1F8
330
1F
100
AcDbEntity
  8
0
100
AcDbBlockReference
  2
SOT23_6___36
 10
54.83859999999999
 20
110.109
 30
0.0
 50
180.0
  0
INSERT
  5
1FE
330
1F
100
AcDbEntity
  8
0
100
AcDbBlockReference
  2
R0402_M_37
 10
102.997
 20
94.3102
 30
0.0
 50
270.0
  0
INSERT
  5
204
330
1F
100
AcDbEntity
  8
0
100
AcDbBlockReference
  2
R0402_M_38
 10
88.97619999999999
 20
78.8924
 30
0.0
 50
90.0
  0
INSERT
  5
20A
330
1F
100
AcDbEntity
  8
0
100
AcDbBlockReference
  2
R0402_M_39
 10
88.97619999999999
 20
76.96199999999999
 30
0.0
 50
270.0
  0
INSERT
  5
210
330
1F
100
AcDbEntity
  8
0
100
AcDbBlockReference
  2
R0402_M_40
 10
89.4588
 20
71.59755048
 30
0.0
 50
90.0
  0
INSERT
  5
216
330
1F
100
AcDbEntity
  8
0
100
AcDbBlockReference
  2
R0402_M_41
 10
54.51399815999999
 20
112.75299776
 30
0.0
 50
180.0
  0
INSERT
  5
21C
330
1F
100
AcDbEntity
  8
0
100
AcDbBlockReference
  2
R0402_M_42
 10
54.52159784
 20
113.48959776
 30
0.0
 50
360.0
  0
INSERT
  5
222
330
1F
100
AcDbEntity
  8
0
100
AcDbBlockReference
  2
NR3015_43
 10
58.7756
 20
111.4044
 30
0.0
 50
270.0
  0
INSERT
  5
228
330
1F
100
AcDbEntity
  8
0
100
AcDbBlockReference
  2
SOD123_FL_44
 10
60.78631987999999
 20
107.6198
 30
0.0
 50
180.0
  0
INSERT
  5
22E
330
1F
100
AcDbEntity
  8
0
100
AcDbBlockReference
  2
SOD123_FL_45
 10
59.23559907999999
 20
113.03119888
 30
0.0
 50
180.0
  0
INSERT
  5
234
330
1F
100
AcDbEntity
  8
0
100
AcDbBlockReference
  2
C0402_M_46
 10
56.76899999999999
 20
110.0836
 30
0.0
 50
90.0
  0
INSERT
  5
23A
330
1F
100
AcDbEntity
  8
0
100
AcDbBlockReference
  2
C0402_M_47
 10
102.0572
 20
94.3356
 30
0.0
 50
90.0
  0
INSERT
  5
240
330
1F
100
AcDbEntity
  8
0
100
AcDbBlockReference
  2
C0402_M_48
 10
102.997
 20
96.139
 30
0.0
 50
270.0
  0
INSERT
  5
246
330
1F
100
AcDbEntity
  8
0
100
AcDbBlockReference
  2
R0402_M_49
 10
90.297
 20
97.84079999999999
 30
0.0
 50
360.0
  0
INSERT
  5
24C
330
1F
100
AcDbEntity
  8
0
100
AcDbBlockReference
  2
R0402_M_50
 10
90.28940032
 20
96.5454
 30
0.0
 50
360.0
  0
INSERT
  5
252
330
1F
100
AcDbEntity
  8
0
100
AcDbBlockReference
  2
R0603_M_51
 10
90.4494
 20
95.2246
 30
0.0
 50
360.0
  0
INSERT
  5
258
330
1F
100
AcDbEntity
  8
0
100
AcDbBlockReference
  2
R0402_M_52
 10
102.20900056
 20
104.5464
 30
0.0
 50
180.0
  0
INSERT
  5
25E
330
1F
100
AcDbEntity
  8
0
100
AcDbBlockReference
  2
R0402_M_53
 10
102.1842
 20
103.0224
 30
0.0
 50
180.0
  0
INSERT
  5
264
330
1F
100
AcDbEntity
  8
0
100
AcDbBlockReference
  2
R0402_M_54
 10
102.1842
 20
101.473
 30
0.0
 50
180.0
  0
INSERT
  5
26A
330
1F
100
AcDbEntity
  8
0
100
AcDbBlockReference
  2
R0402_M_55
 10
56.87016058
 20
114.58059888
 30
0.0
 50
360.0
  0
INSERT
  5
270
330
1F
100
AcDbEntity
  8
0
100
AcDbBlockReference
  2
0603_LED_56
 10
54.79059908
 20
114.58059888
 30
0.0
 50
180.0
  0
INSERT
  5
278
330
1F
100
AcDbEntity
  8
0
100
AcDbBlockReference
  2
DC_050_57
 10
43.97970122
 20
99.59339999999999
 30
0.0
 50
360.0
  0
INSERT
  5
281
330
1F
100
AcDbEntity
  8
0
100
AcDbBlockReference
  2
SOT23_5___58
 10
60.13700444
 20
85.38920946
 30
0.0
 50
180.0
  0
INSERT
  5
287
330
1F
100
AcDbEntity
  8
0
100
AcDbBlockReference
  2
R0402_M_59
 10
60.61960444
 20
87.68079999999999
 30
0.0
 50
360.0
  0
INSERT
  5
28D
330
1F
100
AcDbEntity
  8
0
100
AcDbBlockReference
  2
R0402_M_60
 10
60.64500443999999
 20
88.4428
 30
0.0
 50
180.0
  0
INSERT
  5
294
330
1F
100
AcDbEntity
  8
0
100
AcDbBlockReference
  2
SOT_23_3_61
 10
60.0964
 20
81.6356
 30
0.0
 50
90.0
  0
INSERT
  5
29A
330
1F
100
AcDbEntity
  8
0
100
AcDbBlockReference
  2
SOD123_FL_62
 10
59.81699999999999
 20
102.41160112
 30
0.0
 50
90.0
  0
INSERT
  5
2A0
330
1F
100
AcDbEntity
  8
0
100
AcDbBlockReference
  2
C0402_M_63
 10
58.70219907999999
 20
114.58059888
 30
0.0
 50
360.0
  0
INSERT
  5
2A6
330
1F
100
AcDbEntity
  8
0
100
AcDbBlockReference
  2
C0402_M_64
 10
89.43339999999999
 20
69.90079999999999
 30
0.0
 50
90.0
  0
INSERT
  5
2AC
330
1F
100
AcDbEntity
  8
0
100
AcDbBlockReference
  2
C0603_M_65
 10
69.95620248
 20
110.236
 30
0.0
 50
180.0
  0
INSERT
  5
2B4
330
1F
100
AcDbEntity
  8
0
100
AcDbBlockReference
  2
SOT_89_A_66
 10
84.78380046
 20
71.54040302
 30
0.0
 50
90.0
  0
INSERT
  5
2BA
330
1F
100
AcDbEntity
  8
0
100
AcDbBlockReference
  2
R0402_M_67
 10
71.7804
 20
110.4392
 30
0.0
 50
270.0
  0
INSERT
  5
2C0
330
1F
100
AcDbEntity
  8
0
100
AcDbBlockReference
  2
R0402_M_68
 10
72.64399999999999
 20
110.4392
 30
0.0
 50
270.0
  0
INSERT
  5
2EB
330
1F
100
AcDbEntity
  8
0
100
AcDbBlockReference
  2
ESP_32S_MODULE_69
 10
99.54899825999999
 20
83.26700136
 30
0.0
 50
270.0
  0
INSERT
  5
2F1
330
1F
100
AcDbEntity
  8
0
100
AcDbBlockReference
  2
C0805_M_70
 10
81.4324
 20
71.755
 30
0.0
 50
270.0
  0
INSERT
  5
2F7
330
1F
100
AcDbEntity
  8
0
100
AcDbBlockReference
  2
C0805_M_71
 10
88.1888
 20
69.25120007999999
 30
0.0
 50
90.0
  0
INSERT
  5
2FE
330
1F
100
AcDbEntity
  8
0
100
AcDbBlockReference
  2
SOT_23_3_72
 10
60.0964
 20
76.4032
 30
0.0
 50
90.0
  0
INSERT
  5
30A
330
1F
100
AcDbEntity
  8
0
100
AcDbBlockReference
  2
MSM261S4030H0_73
 10
83.16479937999999
 20
76.26743192
 30
0.0
 50
90.0
  0
INSERT
  5
324
330
1F
100
AcDbEntity
  8
0
100
AcDbBlockReference
  2
SO_8N_74
 10
77.8023844
 20
80.16246604
 30
0.0
 50
270.0
  0
INSERT
  5
33E
330
1F
100
AcDbEntity
  8
0
100
AcDbBlockReference
  2
SO_8N_75
 10
68.6408076
 20
80.13699999999999
 30
0.0
 50
270.0
  0
INSERT
  5
345
330
1F
100
AcDbEntity
  8
0
100
AcDbBlockReference
  2
SOT_23_3_76
 10
97.2566
 20
95.65639999999999
 30
0.0
 50
180.0
  0
INSERT
  5
34D
330
1F
100
AcDbEntity
  8
0
100
AcDbBlockReference
  2
___4_3_4_77
 10
48.17799863999999
 20
110.0328
 30
0.0
  0
INSERT
  5
355
330
1F
100
AcDbEntity
  8
0
100
AcDbBlockReference
  2
___4_3_4_78
 10
48.17799863999999
 20
113.538
 30
0.0
  0
INSERT
  5
35B
330
1F
100
AcDbEntity
  8
0
100
AcDbBlockReference
  2
R0402_M_79
 10
92.25900014
 20
95.6056
 30
0.0
 50
270.0
  0
INSERT
  5
361
330
1F
100
AcDbEntity
  8
0
100
AcDbBlockReference
  2
R0402_M_80
 10
93.1164
 20
95.6056
 30
0.0
 50
270.0
  0
INSERT
  5
367
330
1F
100
AcDbEntity
  8
0
100
AcDbBlockReference
  2
R0402_M_81
 10
72.9234
 20
75.31099999999999
 30
0.0
 50
90.0
  0
INSERT
  5
36D
330
1F
100
AcDbEntity
  8
0
100
AcDbBlockReference
  2
R0402_M_82
 10
79.52739999999999
 20
80.9498
 30
0.0
 50
180.0
  0
INSERT
  5
373
330
1F
100
AcDbEntity
  8
0
100
AcDbBlockReference
  2
R0402_M_83
 10
57.91199999999999
 20
74.77759999999999
 30
0.0
 50
270.0
  0
INSERT
  5
379
330
1F
100
AcDbEntity
  8
0
100
AcDbBlockReference
  2
R0402_M_84
 10
56.66739999999999
 20
84.074
 30
0.0
 50
180.0
  0
INSERT
  5
37F
330
1F
100
AcDbEntity
  8
0
100
AcDbBlockReference
  2
R0402_M_85
 10
56.261
 20
79.09559999999999
 30
0.0
 50
360.0
  0
INSERT
  5
385
330
1F
100
AcDbEntity
  8
0
100
AcDbBlockReference
  2
R0402_M_86
 10
80.84819999999999
 20
110.4392
 30
0.0
 50
90.0
  0
INSERT
  5
38B
330
1F
100
AcDbEntity
  8
0
100
AcDbBlockReference
  2
R0402_M_87
 10
80.0608
 20
110.4392
 30
0.0
 50
90.0
  0
INSERT
  5
392
330
1F
100
AcDbEntity
  8
0
100
AcDbBlockReference
  2
SOT_23_3___88
 10
56.8198
 20
81.63219132
 30
0.0
 50
90.0
  0
INSERT
  5
396
330
1F
100
AcDbEntity
  8
0
100
AcDbBlockReference
  2
HN1X8_89
 10
79.248
 20
64.389
 30
0.0
 50
360.0
  0
INSERT
  5
39A
330
1F
100
AcDbEntity
  8
0
100
AcDbBlockReference
  2
HN1X10_90
 10
85.37399993999999
 20
112.649
 30
0.0
 50
180.0
  0
INSERT
  5
39E
330
1F
100
AcDbEntity
  8
0
100
AcDbBlockReference
  2
HN1X6_91
 10
107.188
 20
64.389
 30
0.0
 50
180.0
  0
INSERT
  5
3A2
330
1F
100
AcDbEntity
  8
0
100
AcDbBlockReference
  2
HN1X8_92
 10
107.188
 20
112.649
 30
0.0
 50
180.0
  0
INSERT
  5
3C0
330
1F
100
AcDbEntity
  8
0
100
AcDbBlockReference
  2
FPC_24P_0_5_93
 10
107.76080048
 20
94.2110003
 30
0.0
 50
90.0
  0
INSERT
  5
3D0
330
1F
100
AcDbEntity
  8
0
100
AcDbBlockReference
  2
TF_SHORT_94
 10
97.40899999999999
 20
104.648
 30
0.0
 50
360.0
  0
INSERT
  5
3E4
330
1F
100
AcDbEntity
  8
0
100
AcDbBlockReference
  2
USB_C_95
 10
54.73699999999999
 20
69.4903995
 30
0.0
 50
270.0
  0
INSERT
  5
402
330
1F
100
AcDbEntity
  8
0
100
AcDbBlockReference
  2
FPC_24P_0_5__96
 10
51.70039952
 20
92.80120123999998
 30
0.0
 50
270.0
  0
INSERT
  5
408
330
1F
100
AcDbEntity
  8
0
100
AcDbBlockReference
  2
R0402_M_97
 10
87.25115899999999
 20
77.22283259999999
 30
0.0
 50
270.0
  0
INSERT
  5
40E
330
1F
100
AcDbEntity
  8
0
100
AcDbBlockReference
  2
R0402_M_98
 10
79.55286858
 20
75.97546654
 30
0.0
 50
360.0
  0
INSERT
  5
414
330
1F
100
AcDbEntity
  8
0
100
AcDbBlockReference
  2
R0402_M_99
 10
79.55286858
 20
75.08646653999999
 30
0.0
 50
360.0
  0
INSERT
  5
41A
330
1F
100
AcDbEntity
  8
0
100
AcDbBlockReference
  2
C0805_M_100
 10
56.4134
 20
75.84440000000001
 30
0.0
 50
90.0
  0
INSERT
  5
420
330
1F
100
AcDbEntity
  8
0
100
AcDbBlockReference
  2
C0402_M_101
 10
88.0872
 20
109.474
 30
0.0
 50
360.0
  0
INSERT
  5
426
330
1F
100
AcDbEntity
  8
0
100
AcDbBlockReference
  2
C0402_M_102
 10
63.8048
 20
75.692
 30
0.0
 50
270.0
  0
INSERT
  5
42C
330
1F
100
AcDbEntity
  8
0
100
AcDbBlockReference
  2
C0805_M_103
 10
63.2968
 20
76.835
 30
0.0
 50
90.0
  0
INSERT
  5
432
330
1F
100
AcDbEntity
  8
0
100
AcDbBlockReference
  2
C0402_M_104
 10
57.91199999999999
 20
76.50117795999999
 30
0.0
 50
270.0
  0
INSERT
  5
438
330
1F
100
AcDbEntity
  8
0
100
AcDbBlockReference
  2
C0402_M_105
 10
62.91579999999999
 20
75.70257656
 30
0.0
 50
270.0
  0
INSERT
  5
43E
330
1F
100
AcDbEntity
  8
0
100
AcDbBlockReference
  2
C0402_M_106
 10
72.9234
 20
77.0636
 30
0.0
 50
90.0
  0
INSERT
  5
444
330
1F
100
AcDbEntity
  8
0
100
AcDbBlockReference
  2
C0402_M_107
 10
82.044159
 20
77.2482326
 30
0.0
 50
270.0
  0
INSERT
  5
44A
330
1F
100
AcDbEntity
  8
0
100
AcDbBlockReference
  2
C0402_M_108
 10
79.502
 20
80.0608
 30
0.0
 50
360.0
  0
INSERT
  5
450
330
1F
100
AcDbEntity
  8
0
100
AcDbBlockReference
  2
C0402_M_109
 10
102.0572
 20
96.139
 30
0.0
 50
270.0
  0
INSERT
  5
456
330
1F
100
AcDbEntity
  8
0
100
AcDbBlockReference
  2
C0805_M_110
 10
100.0252
 20
94.3864
 30
0.0
 50
90.0
  0
INSERT
  5
45C
330
1F
100
AcDbEntity
  8
0
100
AcDbBlockReference
  2
C0603_M_111
 10
94.13239999999999
 20
96.19440248
 30
0.0
 50
270.0
  0
INSERT
  5
462
330
1F
100
AcDbEntity
  8
0
100
AcDbBlockReference
  2
C0402_M_112
 10
58.0898
 20
79.09572192
 30
0.0
 50
360.0
  0
ENDSEC
  0
SECTION
  2
OBJECTS
  0
DICTIONARY
  5
C
330
0
100
AcDbDictionary
281
     1
  3
ACAD_GROUP
350
D
  3
ACAD_LAYOUT
350
1A
  3
ACAD_MATERIAL
350
43
  3
ACAD_MLEADERSTYLE
350
6B
  3
ACAD_MLINESTYLE
350
17
  3
ACAD_PLOTSETTINGS
350
19
  3
ACAD_PLOTSTYLENAME
350
E
  3
ACAD_SCALELIST
350
47
  3
ACAD_TABLESTYLE
350
69
  3
ACAD_VISUALSTYLE
350
2A
  3
AcDbVariableDictionary
350
463
  0
DICTIONARY
  5
46C
330
8
100
AcDbDictionary
280
     1
281
     1
  3
ACAD_XREC_ROUNDTRIP
360
46D
  0
DICTIONARY
  5
D
102
{ACAD_REACTORS
330
C
102
}
330
C
100
AcDbDictionary
281
     1
  0
DICTIONARY
  5
1A
102
{ACAD_REACTORS
330
C
102
}
330
C
100
AcDbDictionary
281
     1
  3
Layout1
350
1E
  3
Layout2
350
26
  3
Model
350
22
  0
DICTIONARY
  5
43
102
{ACAD_REACTORS
330
C
102
}
330
C
100
AcDbDictionary
281
     1
  3
ByBlock
350
45
  3
ByLayer
350
44
  3
Global
350
46
  0
DICTIONARY
  5
6B
102
{ACAD_REACTORS
330
C
102
}
330
C
100
AcDbDictionary
281
     1
  3
Standard
350
6C
  0
DICTIONARY
  5
17
102
{ACAD_REACTORS
330
C
102
}
330
C
100
AcDbDictionary
281
     1
  3
Standard
350
18
  0
DICTIONARY
  5
19
102
{ACAD_REACTORS
330
C
102
}
330
C
100
AcDbDictionary
281
     1
  0
ACDBDICTIONARYWDFLT
  5
E
102
{ACAD_REACTORS
330
C
102
}
330
C
100
AcDbDictionary
281
     1
  3
Normal
350
F
100
AcDbDictionaryWithDefault
340
F
  0
DICTIONARY
  5
47
102
{ACAD_REACTORS
330
C
102
}
330
C
100
AcDbDictionary
281
     1
  3
A0
350
48
  3
A1
350
49
  3
A2
350
4A
  3
A3
350
4B
  3
A4
350
4C
  3
A5
350
4D
  3
A6
350
4E
  3
A7
350
4F
  3
A8
350
50
  3
A9
350
51
  3
B0
350
52
  3
B1
350
53
  3
B2
350
54
  3
B3
350
55
  3
B4
350
56
  3
B5
350
57
  3
B6
350
58
  3
B7
350
59
  3
B8
350
5A
  3
B9
350
5B
  3
C0
350
5C
  3
C1
350
5D
  3
C2
350
5E
  3
C3
350
5F
  3
C4
350
60
  3
C5
350
61
  3
C6
350
62
  3
C7
350
63
  3
C8
350
64
  3
C9
350
65
  3
D0
350
66
  3
D1
350
67
  3
D2
350
68
  0
DICTIONARY
  5
69
102
{ACAD_REACTORS
330
C
102
}
330
C
100
AcDbDictionary
281
     1
  3
Standard
350
6A
  0
DICTIONARY
  5
2A
102
{ACAD_REACTORS
330
C
102
}
330
C
100
AcDbDictionary
281
     1
  3
2dWireframe
350
2F
  3
Basic
350
32
  3
Brighten
350
36
  3
ColorChange
350
3A
  3
Conceptual
350
34
  3
Dim
350
35
  3
EdgeColorOff
350
3D
  3
Facepattern
350
39
  3
Flat
350
2B
  3
FlatWithEdges
350
2C
  3
Gouraud
350
2D
  3
GouraudWithEdges
350
2E
  3
Hidden
350
31
  3
JitterOff
350
3B
  3
Linepattern
350
38
  3
OverhangOff
350
3C
  3
Realistic
350
33
  3
Shaded
350
42
  3
Shaded with edges
350
41
  3
Shades of Gray
350
3E
  3
Sketchy
350
3F
  3
Thicken
350
37
  3
Wireframe
350
30
  3
X-Ray
350
40
  0
DICTIONARY
  5
463
102
{ACAD_REACTORS
330
C
102
}
330
C
100
AcDbDictionary
281
     1
  3
CANNOSCALE
350
46E
  3
CMLEADERSTYLE
350
465
  3
CTABLESTYLE
350
464
  3
DIMASSOC
350
46A
  3
HIDETEXT
350
46B
  3
MSLTSCALE
350
46F
  3
PSOLHEIGHT
350
467
  3
PSOLWIDTH
350
466
  0
XRECORD
  5
46D
102
{ACAD_REACTORS
330
46C
102
}
330
46C
100
AcDbXrecord
280
     1
102
VTR_0.000_0.000_1.000_1.000_GRIDDISPLAY
 70
     3
102
VTR_0.000_0.000_1.000_1.000_GRIDMAJOR
 70
     5
102
VTR_0.000_0.000_1.000_1.000_DEFAULTLIGHTING
280
     1
102
VTR_0.000_0.000_1.000_1.000_DEFAULTLIGHTINGTYPE
 70
     1
102
VTR_0.000_0.000_1.000_1.000_BRIGHTNESS
141
0.0
102
VTR_0.000_0.000_1.000_1.000_CONTRAST
142
0.0
  0
LAYOUT
  5
1E
102
{ACAD_REACTORS
330
1A
102
}
330
1A
100
AcDbPlotSettings
  1

  2
none_device
  4

  6

 40
0.0
 41
0.0
 42
0.0
 43
0.0
 44
0.0
 45
0.0
 46
0.0
 47
0.0
 48
0.0
 49
0.0
140
0.0
141
0.0
142
1.0
143
1.0
 70
   688
 72
     1
 73
     0
 74
     5
  7

 75
    16
147
1.0
148
0.0
149
0.0
100
AcDbLayout
  1
Layout1
 70
     1
 71
     1
 10
0.0
 20
0.0
 11
420.0
 21
297.0
 12
0.0
 22
0.0
 32
0.0
 14
1.000000000000000E+20
 24
1.000000000000000E+20
 34
1.000000000000000E+20
 15
-1.000000000000000E+20
 25
-1.000000000000000E+20
 35
-1.000000000000000E+20
146
0.0
 13
0.0
 23
0.0
 33
0.0
 16
1.0
 26
0.0
 36
0.0
 17
0.0
 27
1.0
 37
0.0
 76
     0
330
1B
  0
LAYOUT
  5
26
102
{ACAD_REACTORS
330
1A
102
}
330
1A
100
AcDbPlotSettings
  1

  2
none_device
  4

  6

 40
0.0
 41
0.0
 42
0.0
 43
0.0
 44
0.0
 45
0.0
 46
0.0
 47
0.0
 48
0.0
 49
0.0
140
0.0
141
0.0
142
1.0
143
1.0
 70
   688
 72
     1
 73
     0
 74
     5
  7

 75
    16
147
1.0
148
0.0
149
0.0
100
AcDbLayout
  1
Layout2
 70
     1
 71
     2
 10
0.0
 20
0.0
 11
0.0
 21
0.0
 12
0.0
 22
0.0
 32
0.0
 14
0.0
 24
0.0
 34
0.0
 15
0.0
 25
0.0
 35
0.0
146
0.0
 13
0.0
 23
0.0
 33
0.0
 16
1.0
 26
0.0
 36
0.0
 17
0.0
 27
1.0
 37
0.0
 76
     0
330
23
  0
LAYOUT
  5
22
102
{ACAD_REACTORS
330
1A
102
}
330
1A
100
AcDbPlotSettings
  1

  2
none_device
  4
Letter_(8.50_x_11.00_Inches)
  6

 40
6.35
 41
6.35
 42
6.35000508
 43
6.35000508
 44
215.9
 45
279.4
 46
0.0
 47
0.0
 48
0.0
 49
0.0
140
0.0
141
0.0
142
1.0
143
1.0
 70
  1712
 72
     1
 73
     0
 74
     0
  7

 75
     0
147
1.0
148
0.0
149
0.0
100
AcDbLayout
  1
Model
 70
     1
 71
     0
 10
-47.0535
 20
-20.7645
 11
245.1735
 21
172.4025
 12
0.0
 22
0.0
 32
0.0
 14
1.000000000000000E+20
 24
1.000000000000000E+20
 34
1.000000000000000E+20
 15
-1.000000000000000E+20
 25
-1.000000000000000E+20
 35
-1.000000000000000E+20
146
0.0
 13
0.0
 23
0.0
 33
0.0
 16
1.0
 26
0.0
 36
0.0
 17
0.0
 27
1.0
 37
0.0
 76
     0
330
1F
331
29
  0
MATERIAL
  5
45
102
{ACAD_REACTORS
330
43
102
}
102
{ACAD_XDICTIONARY
360
4A2
102
}
330
43
100
AcDbMaterial
  1
ByBlock
  0
MATERIAL
  5
44
102
{ACAD_REACTORS
330
43
102
}
102
{ACAD_XDICTIONARY
360
4A0
102
}
330
43
100
AcDbMaterial
  1
ByLayer
  0
MATERIAL
  5
46
102
{ACAD_REACTORS
330
43
102
}
102
{ACAD_XDICTIONARY
360
4A4
102
}
330
43
100
AcDbMaterial
  1
Global
  0
MLEADERSTYLE
  5
6C
102
{ACAD_REACTORS
330
6B
102
}
102
{ACAD_XDICTIONARY
360
4A7
102
}
330
6B
100
AcDbMLeaderStyle
170
     2
171
     1
172
     0
 90
        2
 40
0.0
 41
0.0
173
     1
 91
-1056964608
340
14
 92
       -2
290
     1
 42
2.0
291
     1
 43
8.0
  3
Standard
341
0
 44
4.0
300

342
11
174
     1
178
     6
175
     1
176
     0
 93
-1056964608
 45
4.0
292
     0
297
     0
 46
4.0
343
0
 94
-1056964608
 47
1.0
 49
1.0
140
1.0
293
     1
141
0.0
294
     1
177
     0
142
1.0
295
     0
296
     0
143
3.75
1001
ACAD_MLEADERVER
1070
     2
  0
MLINESTYLE
  5
18
102
{ACAD_REACTORS
330
17
102
}
330
17
100
AcDbMlineStyle
  2
Standard
 70
     0
  3

 62
   256
 51
90.0
 52
90.0
 71
     2
 49
0.5
 62
   256
  6
BYLAYER
 49
-0.5
 62
   256
  6
BYLAYER
  0
ACDBPLACEHOLDER
  5
F
102
{ACAD_REACTORS
330
E
102
}
330
E
  0
SCALE
  5
48
102
{ACAD_REACTORS
330
47
102
}
330
47
100
AcDbScale
 70
     0
300
1:1
140
1.0
141
1.0
290
     1
  0
SCALE
  5
49
102
{ACAD_REACTORS
330
47
102
}
330
47
100
AcDbScale
 70
     0
300
1:2
140
1.0
141
2.0
290
     0
  0
SCALE
  5
4A
102
{ACAD_REACTORS
330
47
102
}
330
47
100
AcDbScale
 70
     0
300
1:4
140
1.0
141
4.0
290
     0
  0
SCALE
  5
4B
102
{ACAD_REACTORS
330
47
102
}
330
47
100
AcDbScale
 70
     0
300
1:5
140
1.0
141
5.0
290
     0
  0
SCALE
  5
4C
102
{ACAD_REACTORS
330
47
102
}
330
47
100
AcDbScale
 70
     0
300
1:8
140
1.0
141
8.0
290
     0
  0
SCALE
  5
4D
102
{ACAD_REACTORS
330
47
102
}
330
47
100
AcDbScale
 70
     0
300
1:10
140
1.0
141
10.0
290
     0
  0
SCALE
  5
4E
102
{ACAD_REACTORS
330
47
102
}
330
47
100
AcDbScale
 70
     0
300
1:16
140
1.0
141
16.0
290
     0
  0
SCALE
  5
4F
102
{ACAD_REACTORS
330
47
102
}
330
47
100
AcDbScale
 70
     0
300
1:20
140
1.0
141
20.0
290
     0
  0
SCALE
  5
50
102
{ACAD_REACTORS
330
47
102
}
330
47
100
AcDbScale
 70
     0
300
1:30
140
1.0
141
30.0
290
     0
  0
SCALE
  5
51
102
{ACAD_REACTORS
330
47
102
}
330
47
100
AcDbScale
 70
     0
300
1:40
140
1.0
141
40.0
290
     0
  0
SCALE
  5
52
102
{ACAD_REACTORS
330
47
102
}
330
47
100
AcDbScale
 70
     0
300
1:50
140
1.0
141
50.0
290
     0
  0
SCALE
  5
53
102
{ACAD_REACTORS
330
47
102
}
330
47
100
AcDbScale
 70
     0
300
1:100
140
1.0
141
100.0
290
     0
  0
SCALE
  5
54
102
{ACAD_REACTORS
330
47
102
}
330
47
100
AcDbScale
 70
     0
300
2:1
140
2.0
141
1.0
290
     0
  0
SCALE
  5
55
102
{ACAD_REACTORS
330
47
102
}
330
47
100
AcDbScale
 70
     0
300
4:1
140
4.0
141
1.0
290
     0
  0
SCALE
  5
56
102
{ACAD_REACTORS
330
47
102
}
330
47
100
AcDbScale
 70
     0
300
8:1
140
8.0
141
1.0
290
     0
  0
SCALE
  5
57
102
{ACAD_REACTORS
330
47
102
}
330
47
100
AcDbScale
 70
     0
300
10:1
140
10.0
141
1.0
290
     0
  0
SCALE
  5
58
102
{ACAD_REACTORS
330
47
102
}
330
47
100
AcDbScale
 70
     0
300
100:1
140
100.0
141
1.0
290
     0
  0
SCALE
  5
59
102
{ACAD_REACTORS
330
47
102
}
330
47
100
AcDbScale
 70
     0
300
1/128" = 1'-0"
140
0.0078125
141
12.0
290
     0
  0
SCALE
  5
5A
102
{ACAD_REACTORS
330
47
102
}
330
47
100
AcDbScale
 70
     0
300
1/64" = 1'-0"
140
0.015625
141
12.0
290
     0
  0
SCALE
  5
5B
102
{ACAD_REACTORS
330
47
102
}
330
47
100
AcDbScale
 70
     0
300
1/32" = 1'-0"
140
0.03125
141
12.0
290
     0
  0
SCALE
  5
5C
102
{ACAD_REACTORS
330
47
102
}
330
47
100
AcDbScale
 70
     0
300
1/16" = 1'-0"
140
0.0625
141
12.0
290
     0
  0
SCALE
  5
5D
102
{ACAD_REACTORS
330
47
102
}
330
47
100
AcDbScale
 70
     0
300
3/32" = 1'-0"
140
0.09375
141
12.0
290
     0
  0
SCALE
  5
5E
102
{ACAD_REACTORS
330
47
102
}
330
47
100
AcDbScale
 70
     0
300
1/8" = 1'-0"
140
0.125
141
12.0
290
     0
  0
SCALE
  5
5F
102
{ACAD_REACTORS
330
47
102
}
330
47
100
AcDbScale
 70
     0
300
3/16" = 1'-0"
140
0.1875
141
12.0
290
     0
  0
SCALE
  5
60
102
{ACAD_REACTORS
330
47
102
}
330
47
100
AcDbScale
 70
     0
300
1/4" = 1'-0"
140
0.25
141
12.0
290
     0
  0
SCALE
  5
61
102
{ACAD_REACTORS
330
47
102
}
330
47
100
AcDbScale
 70
     0
300
3/8" = 1'-0"
140
0.375
141
12.0
290
     0
  0
SCALE
  5
62
102
{ACAD_REACTORS
330
47
102
}
330
47
100
AcDbScale
 70
     0
300
1/2" = 1'-0"
140
0.5
141
12.0
290
     0
  0
SCALE
  5
63
102
{ACAD_REACTORS
330
47
102
}
330
47
100
AcDbScale
 70
     0
300
3/4" = 1'-0"
140
0.75
141
12.0
290
     0
  0
SCALE
  5
64
102
{ACAD_REACTORS
330
47
102
}
330
47
100
AcDbScale
 70
     0
300
1" = 1'-0"
140
1.0
141
12.0
290
     0
  0
SCALE
  5
65
102
{ACAD_REACTORS
330
47
102
}
330
47
100
AcDbScale
 70
     0
300
1-1/2" = 1'-0"
140
1.5
141
12.0
290
     0
  0
SCALE
  5
66
102
{ACAD_REACTORS
330
47
102
}
330
47
100
AcDbScale
 70
     0
300
3" = 1'-0"
140
3.0
141
12.0
290
     0
  0
SCALE
  5
67
102
{ACAD_REACTORS
330
47
102
}
330
47
100
AcDbScale
 70
     0
300
6" = 1'-0"
140
6.0
141
12.0
290
     0
  0
SCALE
  5
68
102
{ACAD_REACTORS
330
47
102
}
330
47
100
AcDbScale
 70
     0
300
1'-0" = 1'-0"
140
12.0
141
12.0
290
     0
  0
TABLESTYLE
  5
6A
102
{ACAD_REACTORS
330
69
102
}
330
69
100
AcDbTableStyle
  3
Standard
 70
     0
 71
     0
 40
1.5
 41
1.5
280
     0
281
     0
  7
Standard
140
4.5
170
     2
 62
     0
 63
   257
283
     0
274
    -2
284
     1
 64
     0
275
    -2
285
     1
 65
     0
276
    -2
286
     1
 66
     0
277
    -2
287
     1
 67
     0
278
    -2
288
     1
 68
     0
279
    -2
289
     1
 69
     0
  7
Standard
140
6.0
170
     5
 62
     0
 63
   257
283
     0
274
    -2
284
     1
 64
     0
275
    -2
285
     1
 65
     0
276
    -2
286
     1
 66
     0
277
    -2
287
     1
 67
     0
278
    -2
288
     1
 68
     0
279
    -2
289
     1
 69
     0
  7
Standard
140
4.5
170
     5
 62
     0
 63
   257
283
     0
274
    -2
284
     1
 64
     0
275
    -2
285
     1
 65
     0
276
    -2
286
     1
 66
     0
277
    -2
287
     1
 67
     0
278
    -2
288
     1
 68
     0
279
    -2
289
     1
 69
     0
  0
VISUALSTYLE
  5
2F
102
{ACAD_REACTORS
330
2A
102
}
102
{ACAD_XDICTIONARY
360
478
102
}
330
2A
100
AcDbVisualStyle
  2
2dWireframe
 70
     4
 71
     0
 72
     2
 73
     0
 90
        0
 40
0.6
 41
30.0
 62
     5
 63
     7
 74
     1
 91
        4
 64
     7
 65
   257
 75
     1
175
     1
 42
1.0
 92
        0
 66
   257
 43
1.0
 76
     1
 77
     6
 78
     2
 67
     7
 79
     5
170
     0
171
     0
290
     0
174
     0
 93
        1
 44
0.0
173
     0
291
     0
 45
0.0
1001
ACAD
1000
AcDbSavedByObjectVersion
1070
     0
  0
VISUALSTYLE
  5
32
102
{ACAD_REACTORS
330
2A
102
}
102
{ACAD_XDICTIONARY
360
47E
102
}
330
2A
100
AcDbVisualStyle
  2
Basic
 70
     7
 71
     1
 72
     0
 73
     1
 90
        0
 40
0.6
 41
30.0
 62
     5
 63
     7
 74
     0
 91
        4
 64
     7
 65
   257
 75
     1
175
     1
 42
1.0
 92
        8
 66
     7
 43
1.0
 76
     1
 77
     6
 78
     2
 67
     7
 79
     5
170
     0
171
     0
290
     0
174
     0
 93
        1
 44
0.0
173
     0
291
     1
 45
0.0
1001
ACAD
1000
AcDbSavedByObjectVersion
1070
     0
  0
VISUALSTYLE
  5
36
102
{ACAD_REACTORS
330
2A
102
}
102
{ACAD_XDICTIONARY
360
486
102
}
330
2A
100
AcDbVisualStyle
  2
Brighten
 70
    12
 71
     2
 72
     2
 73
     0
 90
        0
 40
0.6
 41
30.0
 62
     5
 63
     7
 74
     1
 91
        4
 64
     7
 65
   257
 75
     1
175
     1
 42
1.0
 92
        8
 66
     7
 43
1.0
 76
     1
 77
     6
 78
     2
 67
     7
 79
     5
170
     0
171
     0
290
     0
174
     0
 93
        1
 44
50.0
173
     0
291
     1
 45
0.0
1001
ACAD
1000
AcDbSavedByObjectVersion
1070
     0
  0
VISUALSTYLE
  5
3A
102
{ACAD_REACTORS
330
2A
102
}
102
{ACAD_XDICTIONARY
360
48E
102
}
330
2A
100
AcDbVisualStyle
  2
ColorChange
 70
    16
 71
     2
 72
     2
 73
     3
 90
        0
 40
0.6
 41
30.0
 62
     5
 63
     8
 74
     1
 91
        4
 64
     7
 65
   257
 75
     1
175
     1
 42
1.0
 92
        8
 66
     8
 43
1.0
 76
     1
 77
     6
 78
     2
 67
     7
 79
     5
170
     0
171
     0
290
     0
174
     0
 93
        1
 44
0.0
173
     0
291
     1
 45
0.0
1001
ACAD
1000
AcDbSavedByObjectVersion
1070
     0
  0
VISUALSTYLE
  5
34
102
{ACAD_REACTORS
330
2A
102
}
102
{ACAD_XDICTIONARY
360
482
102
}
330
2A
100
AcDbVisualStyle
  2
Conceptual
 70
     9
 71
     3
 72
     2
 73
     0
 90
        0
 40
0.6
 41
30.0
 62
     5
 63
     7
 74
     2
 91
        2
 64
     7
 65
   257
 75
     1
175
     1
 42
179.0
 92
        8
 66
     7
 43
1.0
 76
     1
 77
     6
 78
     2
 67
     7
 79
     3
170
     0
171
     0
290
     0
174
     0
 93
        1
 44
0.0
173
     0
291
     0
 45
0.0
1001
ACAD
1000
AcDbSavedByObjectVersion
1070
     0
  0
VISUALSTYLE
  5
35
102
{ACAD_REACTORS
330
2A
102
}
102
{ACAD_XDICTIONARY
360
484
102
}
330
2A
100
AcDbVisualStyle
  2
Dim
 70
    11
 71
     2
 72
     2
 73
     0
 90
        0
 40
0.6
 41
30.0
 62
     5
 63
     7
 74
     1
 91
        4
 64
     7
 65
   257
 75
     1
175
     1
 42
1.0
 92
        8
 66
     7
 43
1.0
 76
     1
 77
     6
 78
     2
 67
     7
 79
     5
170
     0
171
     0
290
     0
174
     0
 93
        1
 44
-50.0
173
     0
291
     1
 45
0.0
1001
ACAD
1000
AcDbSavedByObjectVersion
1070
     0
  0
VISUALSTYLE
  5
3D
102
{ACAD_REACTORS
330
2A
102
}
102
{ACAD_XDICTIONARY
360
494
102
}
330
2A
100
AcDbVisualStyle
  2
EdgeColorOff
 70
    22
 71
     2
 72
     2
 73
     0
 90
        0
 40
0.6
 41
30.0
 62
     5
 63
     7
 74
     1
 91
        4
 64
     7
 65
   257
 75
     1
175
     1
 42
1.0
 92
        8
 66
     7
 43
1.0
 76
     1
 77
     6
 78
     2
 67
     7
 79
     5
170
     0
171
     0
290
     0
174
     0
 93
        1
 44
0.0
173
     0
291
     1
 45
0.0
1001
ACAD
1000
AcDbSavedByObjectVersion
1070
     0
  0
VISUALSTYLE
  5
39
102
{ACAD_REACTORS
330
2A
102
}
102
{ACAD_XDICTIONARY
360
48C
102
}
330
2A
100
AcDbVisualStyle
  2
Facepattern
 70
    15
 71
     2
 72
     2
 73
     0
 90
        0
 40
0.6
 41
30.0
 62
     5
 63
     7
 74
     1
 91
        4
 64
     7
 65
   257
 75
     1
175
     1
 42
1.0
 92
        8
 66
     7
 43
1.0
 76
     1
 77
     6
 78
     2
 67
     7
 79
     5
170
     0
171
     0
290
     0
174
     0
 93
        1
 44
0.0
173
     0
291
     1
 45
0.0
1001
ACAD
1000
AcDbSavedByObjectVersion
1070
     0
  0
VISUALSTYLE
  5
2B
102
{ACAD_REACTORS
330
2A
102
}
102
{ACAD_XDICTIONARY
360
470
102
}
330
2A
100
AcDbVisualStyle
  2
Flat
 70
     0
 71
     2
 72
     1
 73
     1
 90
        2
 40
0.6
 41
30.0
 62
     5
 63
     7
 74
     0
 91
        0
 64
     7
 65
   257
 75
     1
175
     1
 42
1.0
 92
        8
 66
     7
 43
1.0
 76
     1
 77
     6
 78
     2
 67
     7
 79
     5
170
     0
171
     0
290
     0
174
     0
 93
       13
 44
0.0
173
     0
291
     1
 45
0.0
1001
ACAD
1000
AcDbSavedByObjectVersion
1070
     0
  0
VISUALSTYLE
  5
2C
102
{ACAD_REACTORS
330
2A
102
}
102
{ACAD_XDICTIONARY
360
472
102
}
330
2A
100
AcDbVisualStyle
  2
FlatWithEdges
 70
     1
 71
     2
 72
     1
 73
     1
 90
        2
 40
0.6
 41
30.0
 62
     5
 63
     7
 74
     1
 91
        0
 64
     7
 65
   257
 75
     1
175
     1
 42
1.0
 92
        0
 66
   257
 43
1.0
 76
     1
 77
     6
 78
     2
 67
     7
 79
     5
170
     0
171
     0
290
     0
174
     0
 93
       13
 44
0.0
173
     0
291
     1
 45
0.0
1001
ACAD
1000
AcDbSavedByObjectVersion
1070
     0
  0
VISUALSTYLE
  5
2D
102
{ACAD_REACTORS
330
2A
102
}
102
{ACAD_XDICTIONARY
360
474
102
}
330
2A
100
AcDbVisualStyle
  2
Gouraud
 70
     2
 71
     2
 72
     2
 73
     1
 90
        2
 40
0.6
 41
30.0
 62
     5
 63
     7
 74
     0
 91
        0
 64
     7
 65
   257
 75
     1
175
     1
 42
1.0
 92
        0
 66
     7
 43
1.0
 76
     1
 77
     6
 78
     2
 67
     7
 79
     5
170
     0
171
     0
290
     0
174
     0
 93
       13
 44
0.0
173
     0
291
     1
 45
0.0
1001
ACAD
1000
AcDbSavedByObjectVersion
1070
     0
  0
VISUALSTYLE
  5
2E
102
{ACAD_REACTORS
330
2A
102
}
102
{ACAD_XDICTIONARY
360
476
102
}
330
2A
100
AcDbVisualStyle
  2
GouraudWithEdges
 70
     3
 71
     2
 72
     2
 73
     1
 90
        2
 40
0.6
 41
30.0
 62
     5
 63
     7
 74
     1
 91
        0
 64
     7
 65
   257
 75
     1
175
     1
 42
1.0
 92
        0
 66
   257
 43
1.0
 76
     1
 77
     6
 78
     2
 67
     7
 79
     5
170
     0
171
     0
290
     0
174
     0
 93
       13
 44
0.0
173
     0
291
     1
 45
0.0
1001
ACAD
1000
AcDbSavedByObjectVersion
1070
     0
  0
VISUALSTYLE
  5
31
102
{ACAD_REACTORS
330
2A
102
}
102
{ACAD_XDICTIONARY
360
47C
102
}
330
2A
100
AcDbVisualStyle
  2
Hidden
 70
     6
 71
     1
 72
     2
 73
     2
 90
        0
 40
0.6
 41
30.0
 62
     5
 63
     7
 74
     2
 91
        2
 64
     7
 65
   257
 75
     2
175
     1
 42
40.0
 92
        0
 66
   257
 43
1.0
 76
     1
 77
     6
 78
     2
 67
     7
 79
     3
170
     0
171
     0
290
     0
174
     0
 93
        1
 44
0.0
173
     0
291
     0
 45
0.0
1001
ACAD
1000
AcDbSavedByObjectVersion
1070
     0
  0
VISUALSTYLE
  5
3B
102
{ACAD_REACTORS
330
2A
102
}
102
{ACAD_XDICTIONARY
360
490
102
}
330
2A
100
AcDbVisualStyle
  2
JitterOff
 70
    20
 71
     2
 72
     2
 73
     0
 90
        0
 40
0.6
 41
30.0
 62
     5
 63
     7
 74
     1
 91
        4
 64
     7
 65
   257
 75
     1
175
     1
 42
1.0
 92
       10
 66
     7
 43
1.0
 76
     1
 77
     6
 78
     2
 67
     7
 79
     5
170
     0
171
     0
290
     0
174
     0
 93
        1
 44
0.0
173
     0
291
     1
 45
0.0
1001
ACAD
1000
AcDbSavedByObjectVersion
1070
     0
  0
VISUALSTYLE
  5
38
102
{ACAD_REACTORS
330
2A
102
}
102
{ACAD_XDICTIONARY
360
48A
102
}
330
2A
100
AcDbVisualStyle
  2
Linepattern
 70
    14
 71
     2
 72
     2
 73
     0
 90
        0
 40
0.6
 41
30.0
 62
     5
 63
     7
 74
     1
 91
        4
 64
     7
 65
   257
 75
     7
175
     7
 42
1.0
 92
        8
 66
     7
 43
1.0
 76
     1
 77
     6
 78
     2
 67
     7
 79
     5
170
     0
171
     0
290
     0
174
     0
 93
        1
 44
0.0
173
     0
291
     1
 45
0.0
1001
ACAD
1000
AcDbSavedByObjectVersion
1070
     0
  0
VISUALSTYLE
  5
3C
102
{ACAD_REACTORS
330
2A
102
}
102
{ACAD_XDICTIONARY
360
492
102
}
330
2A
100
AcDbVisualStyle
  2
OverhangOff
 70
    21
 71
     2
 72
     2
 73
     0
 90
        0
 40
0.6
 41
30.0
 62
     5
 63
     7
 74
     1
 91
        4
 64
     7
 65
   257
 75
     1
175
     1
 42
1.0
 92
        9
 66
     7
 43
1.0
 76
     1
 77
     6
 78
     2
 67
     7
 79
     5
170
     0
171
     0
290
     0
174
     0
 93
        1
 44
0.0
173
     0
291
     1
 45
0.0
1001
ACAD
1000
AcDbSavedByObjectVersion
1070
     0
  0
VISUALSTYLE
  5
33
102
{ACAD_REACTORS
330
2A
102
}
102
{ACAD_XDICTIONARY
360
480
102
}
330
2A
100
AcDbVisualStyle
  2
Realistic
 70
     8
 71
     2
 72
     3
 73
     0
 90
        2
 40
0.6
 41
30.0
 62
     5
 63
     7
 74
     0
 91
        0
 64
     7
 65
   257
 75
     1
175
     1
 42
1.0
 92
        8
 66
   257
 43
1.0
 76
     1
 77
     6
 78
     2
 67
     7
 79
     3
170
     0
171
     0
290
     0
174
     0
 93
       13
 44
0.0
173
     0
291
     0
 45
0.0
1001
ACAD
1000
AcDbSavedByObjectVersion
1070
     0
  0
VISUALSTYLE
  5
42
102
{ACAD_REACTORS
330
2A
102
}
102
{ACAD_XDICTIONARY
360
49E
102
}
330
2A
100
AcDbVisualStyle
  2
Shaded
 70
    27
 71
     2
 72
     2
 73
     1
 90
        2
 40
0.6
 41
30.0
 62
     5
 63
     7
 74
     0
 91
        4
 64
     7
 65
   257
 75
     1
175
     1
 42
1.0
 92
        8
 66
   257
 43
1.0
 76
     1
 77
     6
 78
     2
 67
     8
 79
     3
170
     0
171
     0
290
     0
174
     0
 93
        5
 44
0.0
173
     0
291
     0
 45
0.0
1001
ACAD
1000
AcDbSavedByObjectVersion
1070
     0
  0
VISUALSTYLE
  5
41
102
{ACAD_REACTORS
330
2A
102
}
102
{ACAD_XDICTIONARY
360
49C
102
}
330
2A
100
AcDbVisualStyle
  2
Shaded with edges
 70
    26
 71
     2
 72
     2
 73
     1
 90
        2
 40
0.6
 41
30.0
 62
     5
 63
     7
 74
     1
 91
       10
 64
     7
 65
   257
 75
     2
175
     1
 42
1.0
 92
        8
 66
   257
 43
1.0
 76
     1
 77
     6
 78
     2
 67
     7
 79
     3
170
     0
171
     0
290
     0
174
     0
 93
        5
 44
0.0
173
     0
291
     0
 45
0.0
1001
ACAD
1000
AcDbSavedByObjectVersion
1070
     0
  0
VISUALSTYLE
  5
3E
102
{ACAD_REACTORS
330
2A
102
}
102
{ACAD_XDICTIONARY
360
496
102
}
330
2A
100
AcDbVisualStyle
  2
Shades of Gray
 70
    23
 71
     2
 72
     2
 73
     3
 90
        0
 40
0.6
 41
30.0
 62
     5
 63
     7
 74
     2
 91
        2
 64
     7
 65
     7
 75
     1
175
     1
 42
40.0
 92
        8
 66
     7
 43
1.0
 76
     1
 77
     6
 78
     2
 67
     7
 79
     3
170
     0
171
     0
290
     0
174
     0
 93
        1
 44
0.0
173
     0
291
     0
 45
0.0
1001
ACAD
1000
AcDbSavedByObjectVersion
1070
     0
  0
VISUALSTYLE
  5
3F
102
{ACAD_REACTORS
330
2A
102
}
102
{ACAD_XDICTIONARY
360
498
102
}
330
2A
100
AcDbVisualStyle
  2
Sketchy
 70
    24
 71
     1
 72
     2
 73
     2
 90
        0
 40
0.6
 41
30.0
 62
     5
 63
     7
 74
     2
 91
        2
 64
     7
 65
     7
 75
     1
175
     1
 42
40.0
 92
       11
 66
     7
 43
1.0
 76
     1
 77
     6
 78
     2
 67
     7
 79
     6
170
     0
171
     0
290
     0
174
     0
 93
        1
 44
0.0
173
     0
291
     0
 45
0.0
1001
ACAD
1000
AcDbSavedByObjectVersion
1070
     0
  0
VISUALSTYLE
  5
37
102
{ACAD_REACTORS
330
2A
102
}
102
{ACAD_XDICTIONARY
360
488
102
}
330
2A
100
AcDbVisualStyle
  2
Thicken
 70
    13
 71
     2
 72
     2
 73
     0
 90
        0
 40
0.6
 41
30.0
 62
     5
 63
     7
 74
     1
 91
        4
 64
     7
 65
   257
 75
     1
175
     1
 42
1.0
 92
       12
 66
     7
 43
1.0
 76
     1
 77
     6
 78
     2
 67
     7
 79
     5
170
     0
171
     0
290
     0
174
     0
 93
        1
 44
0.0
173
     0
291
     1
 45
0.0
1001
ACAD
1000
AcDbSavedByObjectVersion
1070
     0
  0
VISUALSTYLE
  5
30
102
{ACAD_REACTORS
330
2A
102
}
102
{ACAD_XDICTIONARY
360
47A
102
}
330
2A
100
AcDbVisualStyle
  2
Wireframe
 70
     5
 71
     0
 72
     2
 73
     0
 90
        0
 40
0.6
 41
30.0
 62
     5
 63
     7
 74
     1
 91
        4
 64
     7
 65
   257
 75
     1
175
     1
 42
1.0
 92
        0
 66
   257
 43
1.0
 76
     1
 77
     6
 78
     2
 67
     7
 79
     3
170
     0
171
     0
290
     0
174
     0
 93
        1
 44
0.0
173
     0
291
     0
 45
0.0
1001
ACAD
1000
AcDbSavedByObjectVersion
1070
     0
  0
VISUALSTYLE
  5
40
102
{ACAD_REACTORS
330
2A
102
}
102
{ACAD_XDICTIONARY
360
49A
102
}
330
2A
100
AcDbVisualStyle
  2
X-Ray
 70
    25
 71
     2
 72
     2
 73
     1
 90
        1
 40
0.5
 41
30.0
 62
     5
 63
     7
 74
     1
 91
        0
 64
     7
 65
   257
 75
     1
175
     1
 42
1.0
 92
        8
 66
     7
 43
1.0
 76
     1
 77
     6
 78
     2
 67
     7
 79
     3
170
     0
171
     0
290
     0
174
     0
 93
       13
 44
0.0
173
     0
291
     0
 45
0.0
1001
ACAD
1000
AcDbSavedByObjectVersion
1070
     0
  0
DICTIONARYVAR
  5
46E
102
{ACAD_REACTORS
330
463
102
}
330
463
100
DictionaryVariables
280
     0
  1
1:1
  0
DICTIONARYVAR
  5
465
102
{ACAD_REACTORS
330
463
102
}
330
463
100
DictionaryVariables
280
     0
  1
Standard
  0
DICTIONARYVAR
  5
464
102
{ACAD_REACTORS
330
463
102
}
330
463
100
DictionaryVariables
280
     0
  1
Standard
  0
DICTIONARYVAR
  5
46A
102
{ACAD_REACTORS
330
463
102
}
330
463
100
DictionaryVariables
280
     0
  1
2
  0
DICTIONARYVAR
  5
46B
102
{ACAD_REACTORS
330
463
102
}
330
463
100
DictionaryVariables
280
     0
  1
1
  0
DICTIONARYVAR
  5
46F
102
{ACAD_REACTORS
330
463
102
}
330
463
100
DictionaryVariables
280
     0
  1
1
  0
DICTIONARYVAR
  5
467
102
{ACAD_REACTORS
330
463
102
}
330
463
100
DictionaryVariables
280
     0
  1
80.000000
  0
DICTIONARYVAR
  5
466
102
{ACAD_REACTORS
330
463
102
}
330
463
100
DictionaryVariables
280
     0
  1
5.000000
  0
DICTIONARY
  5
4A2
330
45
100
AcDbDictionary
280
     1
281
     1
  3
ACAD_XREC_ROUNDTRIP
360
4A3
  0
DICTIONARY
  5
4A0
330
44
100
AcDbDictionary
280
     1
281
     1
  3
ACAD_XREC_ROUNDTRIP
360
4A1
  0
DICTIONARY
  5
4A4
330
46
100
AcDbDictionary
280
     1
281
     1
  3
ACAD_XREC_ROUNDTRIP
360
4A5
  0
DICTIONARY
  5
4A7
330
6C
100
AcDbDictionary
280
     1
281
     1
  3
ACAD_XREC_ROUNDTRIP
360
4A8
  0
DICTIONARY
  5
478
330
2F
100
AcDbDictionary
280
     1
281
     1
  3
ACAD_XREC_ROUNDTRIP
360
479
  0
DICTIONARY
  5
47E
330
32
100
AcDbDictionary
280
     1
281
     1
  3
ACAD_XREC_ROUNDTRIP
360
47F
  0
DICTIONARY
  5
486
330
36
100
AcDbDictionary
280
     1
281
     1
  3
ACAD_XREC_ROUNDTRIP
360
487
  0
DICTIONARY
  5
48E
330
3A
100
AcDbDictionary
280
     1
281
     1
  3
ACAD_XREC_ROUNDTRIP
360
48F
  0
DICTIONARY
  5
482
330
34
100
AcDbDictionary
280
     1
281
     1
  3
ACAD_XREC_ROUNDTRIP
360
483
  0
DICTIONARY
  5
484
330
35
100
AcDbDictionary
280
     1
281
     1
  3
ACAD_XREC_ROUNDTRIP
360
485
  0
DICTIONARY
  5
494
330
3D
100
AcDbDictionary
280
     1
281
     1
  3
ACAD_XREC_ROUNDTRIP
360
495
  0
DICTIONARY
  5
48C
330
39
100
AcDbDictionary
280
     1
281
     1
  3
ACAD_XREC_ROUNDTRIP
360
48D
  0
DICTIONARY
  5
470
330
2B
100
AcDbDictionary
280
     1
281
     1
  3
ACAD_XREC_ROUNDTRIP
360
471
  0
DICTIONARY
  5
472
330
2C
100
AcDbDictionary
280
     1
281
     1
  3
ACAD_XREC_ROUNDTRIP
360
473
  0
DICTIONARY
  5
474
330
2D
100
AcDbDictionary
280
     1
281
     1
  3
ACAD_XREC_ROUNDTRIP
360
475
  0
DICTIONARY
  5
476
330
2E
100
AcDbDictionary
280
     1
281
     1
  3
ACAD_XREC_ROUNDTRIP
360
477
  0
DICTIONARY
  5
47C
330
31
100
AcDbDictionary
280
     1
281
     1
  3
ACAD_XREC_ROUNDTRIP
360
47D
  0
DICTIONARY
  5
490
330
3B
100
AcDbDictionary
280
     1
281
     1
  3
ACAD_XREC_ROUNDTRIP
360
491
  0
DICTIONARY
  5
48A
330
38
100
AcDbDictionary
280
     1
281
     1
  3
ACAD_XREC_ROUNDTRIP
360
48B
  0
DICTIONARY
  5
492
330
3C
100
AcDbDictionary
280
     1
281
     1
  3
ACAD_XREC_ROUNDTRIP
360
493
  0
DICTIONARY
  5
480
330
33
100
AcDbDictionary
280
     1
281
     1
  3
ACAD_XREC_ROUNDTRIP
360
481
  0
DICTIONARY
  5
49E
330
42
100
AcDbDictionary
280
     1
281
     1
  3
ACAD_XREC_ROUNDTRIP
360
49F
  0
DICTIONARY
  5
49C
330
41
100
AcDbDictionary
280
     1
281
     1
  3
ACAD_XREC_ROUNDTRIP
360
49D
  0
DICTIONARY
  5
496
330
3E
100
AcDbDictionary
280
     1
281
     1
  3
ACAD_XREC_ROUNDTRIP
360
497
  0
DICTIONARY
  5
498
330
3F
100
AcDbDictionary
280
     1
281
     1
  3
ACAD_XREC_ROUNDTRIP
360
499
  0
DICTIONARY
  5
488
330
37
100
AcDbDictionary
280
     1
281
     1
  3
ACAD_XREC_ROUNDTRIP
360
489
  0
DICTIONARY
  5
47A
330
30
100
AcDbDictionary
280
     1
281
     1
  3
ACAD_XREC_ROUNDTRIP
360
47B
  0
DICTIONARY
  5
49A
330
40
100
AcDbDictionary
280
     1
281
     1
  3
ACAD_XREC_ROUNDTRIP
360
49B
  0
XRECORD
  5
4A3
102
{ACAD_REACTORS
330
4A2
102
}
330
4A2
100
AcDbXrecord
280
     1
102
MATERIAL
148
0.0
149
0.0
149
0.0
 93
        0
 94
      127
282
     0
 72
     1
 77
     1
171
     1
175
     1
179
     1
273
     0
  0
XRECORD
  5
4A1
102
{ACAD_REACTORS
330
4A0
102
}
330
4A0
100
AcDbXrecord
280
     1
102
MATERIAL
148
0.0
149
0.0
149
0.0
 93
        0
 94
      127
282
     0
 72
     1
 77
     1
171
     1
175
     1
179
     1
273
     0
  0
XRECORD
  5
4A5
102
{ACAD_REACTORS
330
4A4
102
}
330
4A4
100
AcDbXrecord
280
     1
102
MATERIAL
148
0.0
149
0.0
149
0.0
 93
        0
 94
      127
282
     0
 72
     1
 77
     1
171
     1
175
     1
179
     1
273
     0
  0
XRECORD
  5
4A8
102
{ACAD_REACTORS
330
4A7
102
}
330
4A7
100
AcDbXrecord
280
     1
102
ACAD_ROUNDTRIP_2010_MLEADER_STYLE
  0
XRECORD
  5
479
102
{ACAD_REACTORS
330
478
102
}
330
478
100
AcDbXrecord
280
     1
102
RTVSPropertyOp0
 70
     1
102
RTVSPropertyOp1
 70
     1
102
RTVSPropertyOp2
 70
     1
102
RTVSPropertyOp3
 70
     1
102
RTVSPropertyOp4
 70
     1
102
RTVSPropertyOp5
 70
     1
102
RTVSPropertyOp6
 70
     1
102
RTVSPropertyOp7
 70
     1
102
RTVSPropertyOp8
 70
     1
102
RTVSPropertyOp9
 70
     1
102
RTVSPropertyOp10
 70
     1
102
RTVSPropertyOp11
 70
     1
102
RTVSPropertyOp12
 70
     1
102
RTVSPropertyOp13
 70
     1
102
RTVSPropertyOp14
 70
     1
102
RTVSPropertyOp15
 70
     1
102
RTVSPropertyOp16
 70
     1
102
RTVSPropertyOp17
 70
     1
102
RTVSPropertyOp18
 70
     1
102
RTVSPropertyOp19
 70
     1
102
RTVSPropertyOp20
 70
     1
102
RTVSPropertyOp21
 70
     1
102
RTVSPropertyOp22
 70
     1
102
RTVSPropertyOp23
 70
     1
102
RTVSPropertyOp24
 70
     1
102
RTVSPropertyOp25
 70
     1
102
RTVSPropertyOp26
 70
     1
102
RTVSPropertyOp27
 70
     1
102
RTVSPropertyOp28
 70
     1
102
RTVSPropertyOp29
 70
     1
102
RTVSPropertyOp30
 70
     1
102
RTVSPropertyOp31
 70
     1
102
RTVSPropertyOp32
 70
     1
102
RTVSPropertyOp33
 70
     1
102
RTVSPropertyOp34
 70
     1
102
RTVSPropertyOp35
 70
     1
102
RTVSPropertyOp36
 70
     1
102
RTVSPropertyOp37
 70
     1
102
RTVSPropertyOp38
 70
     1
102
RTVSPropertyOp39
 70
     1
102
RTVSPropertyOp40
 70
     1
102
RTVSPropertyOp41
 70
     1
102
RTVSPropertyOp42
 70
     1
102
RTVSPropertyOp43
 70
     1
102
RTVSPropertyOp44
 70
     1
102
RTVSPropertyOp45
 70
     1
102
RTVSPropertyOp46
 70
     1
102
RTVSPropertyOp47
 70
     1
102
RTVSPropertyOp48
 70
     1
102
RTVSPropertyOp49
 70
     1
102
RTVSPropertyOp50
 70
     1
102
RTVSPropertyOp51
 70
     0
102
RTVSPropertyOp52
 70
     0
102
RTVSPropertyOp53
 70
     1
102
RTVSPropertyOp54
 70
     1
102
RTVSPropertyOp55
 70
     1
102
RTVSPropertyOp56
 70
     1
102
RTVSPropertyOp57
 70
     1
102
RTVSPost2010Prop28
280
     1
102
RTVSPost2010PropOp28
 70
     1
102
RTVSPost2010Prop29
280
     1
102
RTVSPost2010PropOp29
 70
     1
102
RTVSPost2010Prop30
280
     0
102
RTVSPost2010PropOp30
 70
     1
102
RTVSPost2010Prop31
280
     0
102
RTVSPost2010PropOp31
 70
     1
102
RTVSPost2010Prop32
280
     0
102
RTVSPost2010PropOp32
 70
     1
102
RTVSPost2010Prop33
280
     0
102
RTVSPost2010PropOp33
 70
     1
102
RTVSPost2010Prop34
280
     0
102
RTVSPost2010PropOp34
 70
     1
102
RTVSPost2010Prop35
280
     0
102
RTVSPost2010PropOp35
 70
     1
102
RTVSPost2010Prop36
280
     0
102
RTVSPost2010PropOp36
 70
     1
102
RTVSPost2010Prop37
 90
       50
102
RTVSPost2010PropOp37
 70
     1
102
RTVSPost2010Prop38
140
0.0
102
RTVSPost2010PropOp38
 70
     1
102
RTVSPost2010Prop39
140
1.0
102
RTVSPost2010PropOp39
 70
     1
102
RTVSPost2010Prop40
 90
        0
102
RTVSPost2010PropOp40
 70
     1
102
RTVSPost2010Prop41ColorIndex
 90
       18
102
RTVSPost2010Prop41ColorRGB
 90
        0
102
RTVSPost2010PropOp41
 70
     1
102
RTVSPost2010Prop42
 90
       50
102
RTVSPost2010PropOp42
 70
     1
102
RTVSPost2010Prop43
 90
        3
102
RTVSPost2010PropOp43
 70
     1
102
RTVSPost2010Prop44ColorIndex
 90
        5
102
RTVSPost2010Prop44ColorRGB
 90
      255
102
RTVSPost2010PropOp44
 70
     1
102
RTVSPost2010Prop45
280
     0
102
RTVSPost2010PropOp45
 70
     1
102
RTVSPost2010Prop46
 90
       50
102
RTVSPost2010PropOp46
 70
     1
102
RTVSPost2010Prop47
 90
       50
102
RTVSPost2010PropOp47
 70
     1
102
RTVSPost2010Prop48
 90
       50
102
RTVSPost2010PropOp48
 70
     1
102
RTVSPost2010Prop49
280
     0
102
RTVSPost2010PropOp49
 70
     1
102
RTVSPost2010Prop50
 90
       50
102
RTVSPost2010PropOp50
 70
     1
102
RTVSPost2010Prop51ColorIndex
 90
      256
102
RTVSPost2010Prop51ColorRGB
 90
-16777216
102
RTVSPost2010PropOp51
 70
     0
102
RTVSPost2010Prop52
140
1.0
102
RTVSPost2010PropOp52
 70
     0
102
RTVSPost2010Prop53
 90
        2
102
RTVSPost2010PropOp53
 70
     1
102
RTVSPost2010Prop54
  1
strokes_ogs.tif
102
RTVSPost2010PropOp54
 70
     1
102
RTVSPost2010Prop55
280
     0
102
RTVSPost2010PropOp55
 70
     1
102
RTVSPost2010Prop56
140
1.0
102
RTVSPost2010PropOp56
 70
     1
102
RTVSPost2010Prop57
140
1.0
102
RTVSPost2010PropOp57
 70
     1
  0
XRECORD
  5
47F
102
{ACAD_REACTORS
330
47E
102
}
330
47E
100
AcDbXrecord
280
     1
102
RTVSPropertyOp0
 70
     1
102
RTVSPropertyOp1
 70
     1
102
RTVSPropertyOp2
 70
     1
102
RTVSPropertyOp3
 70
     1
102
RTVSPropertyOp4
 70
     1
102
RTVSPropertyOp5
 70
     1
102
RTVSPropertyOp6
 70
     1
102
RTVSPropertyOp7
 70
     1
102
RTVSPropertyOp8
 70
     1
102
RTVSPropertyOp9
 70
     1
102
RTVSPropertyOp10
 70
     1
102
RTVSPropertyOp11
 70
     1
102
RTVSPropertyOp12
 70
     1
102
RTVSPropertyOp13
 70
     1
102
RTVSPropertyOp14
 70
     1
102
RTVSPropertyOp15
 70
     1
102
RTVSPropertyOp16
 70
     1
102
RTVSPropertyOp17
 70
     1
102
RTVSPropertyOp18
 70
     1
102
RTVSPropertyOp19
 70
     1
102
RTVSPropertyOp20
 70
     1
102
RTVSPropertyOp21
 70
     1
102
RTVSPropertyOp22
 70
     1
102
RTVSPropertyOp23
 70
     1
102
RTVSPropertyOp24
 70
     1
102
RTVSPropertyOp25
 70
     1
102
RTVSPropertyOp26
 70
     1
102
RTVSPropertyOp27
 70
     1
102
RTVSPropertyOp28
 70
     1
102
RTVSPropertyOp29
 70
     1
102
RTVSPropertyOp30
 70
     1
102
RTVSPropertyOp31
 70
     1
102
RTVSPropertyOp32
 70
     1
102
RTVSPropertyOp33
 70
     1
102
RTVSPropertyOp34
 70
     1
102
RTVSPropertyOp35
 70
     1
102
RTVSPropertyOp36
 70
     1
102
RTVSPropertyOp37
 70
     1
102
RTVSPropertyOp38
 70
     1
102
RTVSPropertyOp39
 70
     1
102
RTVSPropertyOp40
 70
     1
102
RTVSPropertyOp41
 70
     1
102
RTVSPropertyOp42
 70
     1
102
RTVSPropertyOp43
 70
     1
102
RTVSPropertyOp44
 70
     1
102
RTVSPropertyOp45
 70
     1
102
RTVSPropertyOp46
 70
     1
102
RTVSPropertyOp47
 70
     1
102
RTVSPropertyOp48
 70
     1
102
RTVSPropertyOp49
 70
     1
102
RTVSPropertyOp50
 70
     1
102
RTVSPropertyOp51
 70
     0
102
RTVSPropertyOp52
 70
     0
102
RTVSPropertyOp53
 70
     1
102
RTVSPropertyOp54
 70
     1
102
RTVSPropertyOp55
 70
     1
102
RTVSPropertyOp56
 70
     1
102
RTVSPropertyOp57
 70
     1
102
RTVSPost2010Prop28
280
     0
102
RTVSPost2010PropOp28
 70
     1
102
RTVSPost2010Prop29
280
     1
102
RTVSPost2010PropOp29
 70
     1
102
RTVSPost2010Prop30
280
     1
102
RTVSPost2010PropOp30
 70
     1
102
RTVSPost2010Prop31
280
     0
102
RTVSPost2010PropOp31
 70
     1
102
RTVSPost2010Prop32
280
     0
102
RTVSPost2010PropOp32
 70
     1
102
RTVSPost2010Prop33
280
     0
102
RTVSPost2010PropOp33
 70
     1
102
RTVSPost2010Prop34
280
     0
102
RTVSPost2010PropOp34
 70
     1
102
RTVSPost2010Prop35
280
     0
102
RTVSPost2010PropOp35
 70
     1
102
RTVSPost2010Prop36
280
     0
102
RTVSPost2010PropOp36
 70
     1
102
RTVSPost2010Prop37
 90
       50
102
RTVSPost2010PropOp37
 70
     1
102
RTVSPost2010Prop38
140
0.0
102
RTVSPost2010PropOp38
 70
     1
102
RTVSPost2010Prop39
140
1.0
102
RTVSPost2010PropOp39
 70
     1
102
RTVSPost2010Prop40
 90
        0
102
RTVSPost2010PropOp40
 70
     1
102
RTVSPost2010Prop41ColorIndex
 90
       18
102
RTVSPost2010Prop41ColorRGB
 90
        0
102
RTVSPost2010PropOp41
 70
     1
102
RTVSPost2010Prop42
 90
       50
102
RTVSPost2010PropOp42
 70
     1
102
RTVSPost2010Prop43
 90
        3
102
RTVSPost2010PropOp43
 70
     1
102
RTVSPost2010Prop44ColorIndex
 90
        5
102
RTVSPost2010Prop44ColorRGB
 90
      255
102
RTVSPost2010PropOp44
 70
     1
102
RTVSPost2010Prop45
280
     0
102
RTVSPost2010PropOp45
 70
     1
102
RTVSPost2010Prop46
 90
       50
102
RTVSPost2010PropOp46
 70
     1
102
RTVSPost2010Prop47
 90
       50
102
RTVSPost2010PropOp47
 70
     1
102
RTVSPost2010Prop48
 90
       50
102
RTVSPost2010PropOp48
 70
     1
102
RTVSPost2010Prop49
280
     0
102
RTVSPost2010PropOp49
 70
     1
102
RTVSPost2010Prop50
 90
       50
102
RTVSPost2010PropOp50
 70
     1
102
RTVSPost2010Prop51ColorIndex
 90
      256
102
RTVSPost2010Prop51ColorRGB
 90
-16777216
102
RTVSPost2010PropOp51
 70
     0
102
RTVSPost2010Prop52
140
1.0
102
RTVSPost2010PropOp52
 70
     0
102
RTVSPost2010Prop53
 90
        2
102
RTVSPost2010PropOp53
 70
     1
102
RTVSPost2010Prop54
  1
strokes_ogs.tif
102
RTVSPost2010PropOp54
 70
     1
102
RTVSPost2010Prop55
280
     0
102
RTVSPost2010PropOp55
 70
     1
102
RTVSPost2010Prop56
140
1.0
102
RTVSPost2010PropOp56
 70
     1
102
RTVSPost2010Prop57
140
1.0
102
RTVSPost2010PropOp57
 70
     1
  0
XRECORD
  5
487
102
{ACAD_REACTORS
330
486
102
}
330
486
100
AcDbXrecord
280
     1
102
RTVSPropertyOp0
 70
     1
102
RTVSPropertyOp1
 70
     1
102
RTVSPropertyOp2
 70
     1
102
RTVSPropertyOp3
 70
     1
102
RTVSPropertyOp4
 70
     1
102
RTVSPropertyOp5
 70
     1
102
RTVSPropertyOp6
 70
     1
102
RTVSPropertyOp7
 70
     1
102
RTVSPropertyOp8
 70
     1
102
RTVSPropertyOp9
 70
     1
102
RTVSPropertyOp10
 70
     1
102
RTVSPropertyOp11
 70
     1
102
RTVSPropertyOp12
 70
     1
102
RTVSPropertyOp13
 70
     1
102
RTVSPropertyOp14
 70
     1
102
RTVSPropertyOp15
 70
     1
102
RTVSPropertyOp16
 70
     1
102
RTVSPropertyOp17
 70
     1
102
RTVSPropertyOp18
 70
     1
102
RTVSPropertyOp19
 70
     1
102
RTVSPropertyOp20
 70
     1
102
RTVSPropertyOp21
 70
     1
102
RTVSPropertyOp22
 70
     1
102
RTVSPropertyOp23
 70
     1
102
RTVSPropertyOp24
 70
     1
102
RTVSPropertyOp25
 70
     1
102
RTVSPropertyOp26
 70
     1
102
RTVSPropertyOp27
 70
     1
102
RTVSPropertyOp28
 70
     1
102
RTVSPropertyOp29
 70
     1
102
RTVSPropertyOp30
 70
     1
102
RTVSPropertyOp31
 70
     1
102
RTVSPropertyOp32
 70
     1
102
RTVSPropertyOp33
 70
     1
102
RTVSPropertyOp34
 70
     1
102
RTVSPropertyOp35
 70
     1
102
RTVSPropertyOp36
 70
     1
102
RTVSPropertyOp37
 70
     1
102
RTVSPropertyOp38
 70
     1
102
RTVSPropertyOp39
 70
     1
102
RTVSPropertyOp40
 70
     1
102
RTVSPropertyOp41
 70
     1
102
RTVSPropertyOp42
 70
     1
102
RTVSPropertyOp43
 70
     1
102
RTVSPropertyOp44
 70
     1
102
RTVSPropertyOp45
 70
     1
102
RTVSPropertyOp46
 70
     1
102
RTVSPropertyOp47
 70
     1
102
RTVSPropertyOp48
 70
     1
102
RTVSPropertyOp49
 70
     1
102
RTVSPropertyOp50
 70
     1
102
RTVSPropertyOp51
 70
     0
102
RTVSPropertyOp52
 70
     0
102
RTVSPropertyOp53
 70
     1
102
RTVSPropertyOp54
 70
     1
102
RTVSPropertyOp55
 70
     1
102
RTVSPropertyOp56
 70
     1
102
RTVSPropertyOp57
 70
     1
102
RTVSPost2010Prop28
280
     0
102
RTVSPost2010PropOp28
 70
     1
102
RTVSPost2010Prop29
280
     1
102
RTVSPost2010PropOp29
 70
     1
102
RTVSPost2010Prop30
280
     1
102
RTVSPost2010PropOp30
 70
     1
102
RTVSPost2010Prop31
280
     0
102
RTVSPost2010PropOp31
 70
     1
102
RTVSPost2010Prop32
280
     0
102
RTVSPost2010PropOp32
 70
     1
102
RTVSPost2010Prop33
280
     0
102
RTVSPost2010PropOp33
 70
     1
102
RTVSPost2010Prop34
280
     0
102
RTVSPost2010PropOp34
 70
     1
102
RTVSPost2010Prop35
280
     0
102
RTVSPost2010PropOp35
 70
     1
102
RTVSPost2010Prop36
280
     0
102
RTVSPost2010PropOp36
 70
     1
102
RTVSPost2010Prop37
 90
       50
102
RTVSPost2010PropOp37
 70
     1
102
RTVSPost2010Prop38
140
0.0
102
RTVSPost2010PropOp38
 70
     1
102
RTVSPost2010Prop39
140
1.0
102
RTVSPost2010PropOp39
 70
     1
102
RTVSPost2010Prop40
 90
        0
102
RTVSPost2010PropOp40
 70
     1
102
RTVSPost2010Prop41ColorIndex
 90
       18
102
RTVSPost2010Prop41ColorRGB
 90
        0
102
RTVSPost2010PropOp41
 70
     1
102
RTVSPost2010Prop42
 90
       50
102
RTVSPost2010PropOp42
 70
     1
102
RTVSPost2010Prop43
 90
        3
102
RTVSPost2010PropOp43
 70
     1
102
RTVSPost2010Prop44ColorIndex
 90
        5
102
RTVSPost2010Prop44ColorRGB
 90
      255
102
RTVSPost2010PropOp44
 70
     1
102
RTVSPost2010Prop45
280
     0
102
RTVSPost2010PropOp45
 70
     1
102
RTVSPost2010Prop46
 90
       50
102
RTVSPost2010PropOp46
 70
     1
102
RTVSPost2010Prop47
 90
       50
102
RTVSPost2010PropOp47
 70
     1
102
RTVSPost2010Prop48
 90
       50
102
RTVSPost2010PropOp48
 70
     1
102
RTVSPost2010Prop49
280
     0
102
RTVSPost2010PropOp49
 70
     1
102
RTVSPost2010Prop50
 90
       50
102
RTVSPost2010PropOp50
 70
     1
102
RTVSPost2010Prop51ColorIndex
 90
      256
102
RTVSPost2010Prop51ColorRGB
 90
-16777216
102
RTVSPost2010PropOp51
 70
     0
102
RTVSPost2010Prop52
140
1.0
102
RTVSPost2010PropOp52
 70
     0
102
RTVSPost2010Prop53
 90
        2
102
RTVSPost2010PropOp53
 70
     1
102
RTVSPost2010Prop54
  1
strokes_ogs.tif
102
RTVSPost2010PropOp54
 70
     1
102
RTVSPost2010Prop55
280
     0
102
RTVSPost2010PropOp55
 70
     1
102
RTVSPost2010Prop56
140
1.0
102
RTVSPost2010PropOp56
 70
     1
102
RTVSPost2010Prop57
140
1.0
102
RTVSPost2010PropOp57
 70
     1
  0
XRECORD
  5
48F
102
{ACAD_REACTORS
330
48E
102
}
330
48E
100
AcDbXrecord
280
     1
102
RTVSPropertyOp0
 70
     1
102
RTVSPropertyOp1
 70
     1
102
RTVSPropertyOp2
 70
     1
102
RTVSPropertyOp3
 70
     1
102
RTVSPropertyOp4
 70
     1
102
RTVSPropertyOp5
 70
     1
102
RTVSPropertyOp6
 70
     1
102
RTVSPropertyOp7
 70
     1
102
RTVSPropertyOp8
 70
     1
102
RTVSPropertyOp9
 70
     1
102
RTVSPropertyOp10
 70
     1
102
RTVSPropertyOp11
 70
     1
102
RTVSPropertyOp12
 70
     1
102
RTVSPropertyOp13
 70
     1
102
RTVSPropertyOp14
 70
     1
102
RTVSPropertyOp15
 70
     1
102
RTVSPropertyOp16
 70
     1
102
RTVSPropertyOp17
 70
     1
102
RTVSPropertyOp18
 70
     1
102
RTVSPropertyOp19
 70
     1
102
RTVSPropertyOp20
 70
     1
102
RTVSPropertyOp21
 70
     1
102
RTVSPropertyOp22
 70
     1
102
RTVSPropertyOp23
 70
     1
102
RTVSPropertyOp24
 70
     1
102
RTVSPropertyOp25
 70
     1
102
RTVSPropertyOp26
 70
     1
102
RTVSPropertyOp27
 70
     1
102
RTVSPropertyOp28
 70
     1
102
RTVSPropertyOp29
 70
     1
102
RTVSPropertyOp30
 70
     1
102
RTVSPropertyOp31
 70
     1
102
RTVSPropertyOp32
 70
     1
102
RTVSPropertyOp33
 70
     1
102
RTVSPropertyOp34
 70
     1
102
RTVSPropertyOp35
 70
     1
102
RTVSPropertyOp36
 70
     1
102
RTVSPropertyOp37
 70
     1
102
RTVSPropertyOp38
 70
     1
102
RTVSPropertyOp39
 70
     1
102
RTVSPropertyOp40
 70
     1
102
RTVSPropertyOp41
 70
     1
102
RTVSPropertyOp42
 70
     1
102
RTVSPropertyOp43
 70
     1
102
RTVSPropertyOp44
 70
     1
102
RTVSPropertyOp45
 70
     1
102
RTVSPropertyOp46
 70
     1
102
RTVSPropertyOp47
 70
     1
102
RTVSPropertyOp48
 70
     1
102
RTVSPropertyOp49
 70
     1
102
RTVSPropertyOp50
 70
     1
102
RTVSPropertyOp51
 70
     0
102
RTVSPropertyOp52
 70
     0
102
RTVSPropertyOp53
 70
     1
102
RTVSPropertyOp54
 70
     1
102
RTVSPropertyOp55
 70
     1
102
RTVSPropertyOp56
 70
     1
102
RTVSPropertyOp57
 70
     1
102
RTVSPost2010Prop28
280
     0
102
RTVSPost2010PropOp28
 70
     1
102
RTVSPost2010Prop29
280
     1
102
RTVSPost2010PropOp29
 70
     1
102
RTVSPost2010Prop30
280
     1
102
RTVSPost2010PropOp30
 70
     1
102
RTVSPost2010Prop31
280
     0
102
RTVSPost2010PropOp31
 70
     1
102
RTVSPost2010Prop32
280
     0
102
RTVSPost2010PropOp32
 70
     1
102
RTVSPost2010Prop33
280
     0
102
RTVSPost2010PropOp33
 70
     1
102
RTVSPost2010Prop34
280
     0
102
RTVSPost2010PropOp34
 70
     1
102
RTVSPost2010Prop35
280
     0
102
RTVSPost2010PropOp35
 70
     1
102
RTVSPost2010Prop36
280
     0
102
RTVSPost2010PropOp36
 70
     1
102
RTVSPost2010Prop37
 90
       50
102
RTVSPost2010PropOp37
 70
     1
102
RTVSPost2010Prop38
140
0.0
102
RTVSPost2010PropOp38
 70
     1
102
RTVSPost2010Prop39
140
1.0
102
RTVSPost2010PropOp39
 70
     1
102
RTVSPost2010Prop40
 90
        0
102
RTVSPost2010PropOp40
 70
     1
102
RTVSPost2010Prop41ColorIndex
 90
       18
102
RTVSPost2010Prop41ColorRGB
 90
        0
102
RTVSPost2010PropOp41
 70
     1
102
RTVSPost2010Prop42
 90
       50
102
RTVSPost2010PropOp42
 70
     1
102
RTVSPost2010Prop43
 90
        3
102
RTVSPost2010PropOp43
 70
     1
102
RTVSPost2010Prop44ColorIndex
 90
        5
102
RTVSPost2010Prop44ColorRGB
 90
      255
102
RTVSPost2010PropOp44
 70
     1
102
RTVSPost2010Prop45
280
     0
102
RTVSPost2010PropOp45
 70
     1
102
RTVSPost2010Prop46
 90
       50
102
RTVSPost2010PropOp46
 70
     1
102
RTVSPost2010Prop47
 90
       50
102
RTVSPost2010PropOp47
 70
     1
102
RTVSPost2010Prop48
 90
       50
102
RTVSPost2010PropOp48
 70
     1
102
RTVSPost2010Prop49
280
     0
102
RTVSPost2010PropOp49
 70
     1
102
RTVSPost2010Prop50
 90
       50
102
RTVSPost2010PropOp50
 70
     1
102
RTVSPost2010Prop51ColorIndex
 90
      256
102
RTVSPost2010Prop51ColorRGB
 90
-16777216
102
RTVSPost2010PropOp51
 70
     0
102
RTVSPost2010Prop52
140
1.0
102
RTVSPost2010PropOp52
 70
     0
102
RTVSPost2010Prop53
 90
        2
102
RTVSPost2010PropOp53
 70
     1
102
RTVSPost2010Prop54
  1
strokes_ogs.tif
102
RTVSPost2010PropOp54
 70
     1
102
RTVSPost2010Prop55
280
     0
102
RTVSPost2010PropOp55
 70
     1
102
RTVSPost2010Prop56
140
1.0
102
RTVSPost2010PropOp56
 70
     1
102
RTVSPost2010Prop57
140
1.0
102
RTVSPost2010PropOp57
 70
     1
  0
XRECORD
  5
483
102
{ACAD_REACTORS
330
482
102
}
330
482
100
AcDbXrecord
280
     1
102
RTVSPropertyOp0
 70
     1
102
RTVSPropertyOp1
 70
     1
102
RTVSPropertyOp2
 70
     1
102
RTVSPropertyOp3
 70
     1
102
RTVSPropertyOp4
 70
     1
102
RTVSPropertyOp5
 70
     1
102
RTVSPropertyOp6
 70
     1
102
RTVSPropertyOp7
 70
     1
102
RTVSPropertyOp8
 70
     1
102
RTVSPropertyOp9
 70
     1
102
RTVSPropertyOp10
 70
     1
102
RTVSPropertyOp11
 70
     1
102
RTVSPropertyOp12
 70
     1
102
RTVSPropertyOp13
 70
     1
102
RTVSPropertyOp14
 70
     1
102
RTVSPropertyOp15
 70
     1
102
RTVSPropertyOp16
 70
     1
102
RTVSPropertyOp17
 70
     1
102
RTVSPropertyOp18
 70
     1
102
RTVSPropertyOp19
 70
     1
102
RTVSPropertyOp20
 70
     1
102
RTVSPropertyOp21
 70
     1
102
RTVSPropertyOp22
 70
     1
102
RTVSPropertyOp23
 70
     1
102
RTVSPropertyOp24
 70
     1
102
RTVSPropertyOp25
 70
     1
102
RTVSPropertyOp26
 70
     1
102
RTVSPropertyOp27
 70
     1
102
RTVSPropertyOp28
 70
     1
102
RTVSPropertyOp29
 70
     1
102
RTVSPropertyOp30
 70
     1
102
RTVSPropertyOp31
 70
     1
102
RTVSPropertyOp32
 70
     1
102
RTVSPropertyOp33
 70
     1
102
RTVSPropertyOp34
 70
     1
102
RTVSPropertyOp35
 70
     1
102
RTVSPropertyOp36
 70
     1
102
RTVSPropertyOp37
 70
     1
102
RTVSPropertyOp38
 70
     1
102
RTVSPropertyOp39
 70
     1
102
RTVSPropertyOp40
 70
     1
102
RTVSPropertyOp41
 70
     1
102
RTVSPropertyOp42
 70
     1
102
RTVSPropertyOp43
 70
     1
102
RTVSPropertyOp44
 70
     1
102
RTVSPropertyOp45
 70
     1
102
RTVSPropertyOp46
 70
     1
102
RTVSPropertyOp47
 70
     1
102
RTVSPropertyOp48
 70
     1
102
RTVSPropertyOp49
 70
     1
102
RTVSPropertyOp50
 70
     1
102
RTVSPropertyOp51
 70
     0
102
RTVSPropertyOp52
 70
     0
102
RTVSPropertyOp53
 70
     1
102
RTVSPropertyOp54
 70
     1
102
RTVSPropertyOp55
 70
     1
102
RTVSPropertyOp56
 70
     1
102
RTVSPropertyOp57
 70
     1
102
RTVSPost2010Prop28
280
     0
102
RTVSPost2010PropOp28
 70
     1
102
RTVSPost2010Prop29
280
     1
102
RTVSPost2010PropOp29
 70
     1
102
RTVSPost2010Prop30
280
     1
102
RTVSPost2010PropOp30
 70
     1
102
RTVSPost2010Prop31
280
     0
102
RTVSPost2010PropOp31
 70
     1
102
RTVSPost2010Prop32
280
     0
102
RTVSPost2010PropOp32
 70
     1
102
RTVSPost2010Prop33
280
     0
102
RTVSPost2010PropOp33
 70
     1
102
RTVSPost2010Prop34
280
     0
102
RTVSPost2010PropOp34
 70
     1
102
RTVSPost2010Prop35
280
     0
102
RTVSPost2010PropOp35
 70
     1
102
RTVSPost2010Prop36
280
     0
102
RTVSPost2010PropOp36
 70
     1
102
RTVSPost2010Prop37
 90
       50
102
RTVSPost2010PropOp37
 70
     1
102
RTVSPost2010Prop38
140
0.0
102
RTVSPost2010PropOp38
 70
     1
102
RTVSPost2010Prop39
140
1.0
102
RTVSPost2010PropOp39
 70
     1
102
RTVSPost2010Prop40
 90
        0
102
RTVSPost2010PropOp40
 70
     1
102
RTVSPost2010Prop41ColorIndex
 90
       18
102
RTVSPost2010Prop41ColorRGB
 90
        0
102
RTVSPost2010PropOp41
 70
     1
102
RTVSPost2010Prop42
 90
       50
102
RTVSPost2010PropOp42
 70
     1
102
RTVSPost2010Prop43
 90
        3
102
RTVSPost2010PropOp43
 70
     1
102
RTVSPost2010Prop44ColorIndex
 90
        5
102
RTVSPost2010Prop44ColorRGB
 90
      255
102
RTVSPost2010PropOp44
 70
     1
102
RTVSPost2010Prop45
280
     0
102
RTVSPost2010PropOp45
 70
     1
102
RTVSPost2010Prop46
 90
       50
102
RTVSPost2010PropOp46
 70
     1
102
RTVSPost2010Prop47
 90
       50
102
RTVSPost2010PropOp47
 70
     1
102
RTVSPost2010Prop48
 90
       50
102
RTVSPost2010PropOp48
 70
     1
102
RTVSPost2010Prop49
280
     0
102
RTVSPost2010PropOp49
 70
     1
102
RTVSPost2010Prop50
 90
       50
102
RTVSPost2010PropOp50
 70
     1
102
RTVSPost2010Prop51ColorIndex
 90
      256
102
RTVSPost2010Prop51ColorRGB
 90
-16777216
102
RTVSPost2010PropOp51
 70
     0
102
RTVSPost2010Prop52
140
1.0
102
RTVSPost2010PropOp52
 70
     0
102
RTVSPost2010Prop53
 90
        2
102
RTVSPost2010PropOp53
 70
     1
102
RTVSPost2010Prop54
  1
strokes_ogs.tif
102
RTVSPost2010PropOp54
 70
     1
102
RTVSPost2010Prop55
280
     0
102
RTVSPost2010PropOp55
 70
     1
102
RTVSPost2010Prop56
140
1.0
102
RTVSPost2010PropOp56
 70
     1
102
RTVSPost2010Prop57
140
1.0
102
RTVSPost2010PropOp57
 70
     1
  0
XRECORD
  5
485
102
{ACAD_REACTORS
330
484
102
}
330
484
100
AcDbXrecord
280
     1
102
RTVSPropertyOp0
 70
     1
102
RTVSPropertyOp1
 70
     1
102
RTVSPropertyOp2
 70
     1
102
RTVSPropertyOp3
 70
     1
102
RTVSPropertyOp4
 70
     1
102
RTVSPropertyOp5
 70
     1
102
RTVSPropertyOp6
 70
     1
102
RTVSPropertyOp7
 70
     1
102
RTVSPropertyOp8
 70
     1
102
RTVSPropertyOp9
 70
     1
102
RTVSPropertyOp10
 70
     1
102
RTVSPropertyOp11
 70
     1
102
RTVSPropertyOp12
 70
     1
102
RTVSPropertyOp13
 70
     1
102
RTVSPropertyOp14
 70
     1
102
RTVSPropertyOp15
 70
     1
102
RTVSPropertyOp16
 70
     1
102
RTVSPropertyOp17
 70
     1
102
RTVSPropertyOp18
 70
     1
102
RTVSPropertyOp19
 70
     1
102
RTVSPropertyOp20
 70
     1
102
RTVSPropertyOp21
 70
     1
102
RTVSPropertyOp22
 70
     1
102
RTVSPropertyOp23
 70
     1
102
RTVSPropertyOp24
 70
     1
102
RTVSPropertyOp25
 70
     1
102
RTVSPropertyOp26
 70
     1
102
RTVSPropertyOp27
 70
     1
102
RTVSPropertyOp28
 70
     1
102
RTVSPropertyOp29
 70
     1
102
RTVSPropertyOp30
 70
     1
102
RTVSPropertyOp31
 70
     1
102
RTVSPropertyOp32
 70
     1
102
RTVSPropertyOp33
 70
     1
102
RTVSPropertyOp34
 70
     1
102
RTVSPropertyOp35
 70
     1
102
RTVSPropertyOp36
 70
     1
102
RTVSPropertyOp37
 70
     1
102
RTVSPropertyOp38
 70
     1
102
RTVSPropertyOp39
 70
     1
102
RTVSPropertyOp40
 70
     1
102
RTVSPropertyOp41
 70
     1
102
RTVSPropertyOp42
 70
     1
102
RTVSPropertyOp43
 70
     1
102
RTVSPropertyOp44
 70
     1
102
RTVSPropertyOp45
 70
     1
102
RTVSPropertyOp46
 70
     1
102
RTVSPropertyOp47
 70
     1
102
RTVSPropertyOp48
 70
     1
102
RTVSPropertyOp49
 70
     1
102
RTVSPropertyOp50
 70
     1
102
RTVSPropertyOp51
 70
     0
102
RTVSPropertyOp52
 70
     0
102
RTVSPropertyOp53
 70
     1
102
RTVSPropertyOp54
 70
     1
102
RTVSPropertyOp55
 70
     1
102
RTVSPropertyOp56
 70
     1
102
RTVSPropertyOp57
 70
     1
102
RTVSPost2010Prop28
280
     0
102
RTVSPost2010PropOp28
 70
     1
102
RTVSPost2010Prop29
280
     1
102
RTVSPost2010PropOp29
 70
     1
102
RTVSPost2010Prop30
280
     1
102
RTVSPost2010PropOp30
 70
     1
102
RTVSPost2010Prop31
280
     0
102
RTVSPost2010PropOp31
 70
     1
102
RTVSPost2010Prop32
280
     0
102
RTVSPost2010PropOp32
 70
     1
102
RTVSPost2010Prop33
280
     0
102
RTVSPost2010PropOp33
 70
     1
102
RTVSPost2010Prop34
280
     0
102
RTVSPost2010PropOp34
 70
     1
102
RTVSPost2010Prop35
280
     0
102
RTVSPost2010PropOp35
 70
     1
102
RTVSPost2010Prop36
280
     0
102
RTVSPost2010PropOp36
 70
     1
102
RTVSPost2010Prop37
 90
       50
102
RTVSPost2010PropOp37
 70
     1
102
RTVSPost2010Prop38
140
0.0
102
RTVSPost2010PropOp38
 70
     1
102
RTVSPost2010Prop39
140
1.0
102
RTVSPost2010PropOp39
 70
     1
102
RTVSPost2010Prop40
 90
        0
102
RTVSPost2010PropOp40
 70
     1
102
RTVSPost2010Prop41ColorIndex
 90
       18
102
RTVSPost2010Prop41ColorRGB
 90
        0
102
RTVSPost2010PropOp41
 70
     1
102
RTVSPost2010Prop42
 90
       50
102
RTVSPost2010PropOp42
 70
     1
102
RTVSPost2010Prop43
 90
        3
102
RTVSPost2010PropOp43
 70
     1
102
RTVSPost2010Prop44ColorIndex
 90
        5
102
RTVSPost2010Prop44ColorRGB
 90
      255
102
RTVSPost2010PropOp44
 70
     1
102
RTVSPost2010Prop45
280
     0
102
RTVSPost2010PropOp45
 70
     1
102
RTVSPost2010Prop46
 90
       50
102
RTVSPost2010PropOp46
 70
     1
102
RTVSPost2010Prop47
 90
       50
102
RTVSPost2010PropOp47
 70
     1
102
RTVSPost2010Prop48
 90
       50
102
RTVSPost2010PropOp48
 70
     1
102
RTVSPost2010Prop49
280
     0
102
RTVSPost2010PropOp49
 70
     1
102
RTVSPost2010Prop50
 90
       50
102
RTVSPost2010PropOp50
 70
     1
102
RTVSPost2010Prop51ColorIndex
 90
      256
102
RTVSPost2010Prop51ColorRGB
 90
-16777216
102
RTVSPost2010PropOp51
 70
     0
102
RTVSPost2010Prop52
140
1.0
102
RTVSPost2010PropOp52
 70
     0
102
RTVSPost2010Prop53
 90
        2
102
RTVSPost2010PropOp53
 70
     1
102
RTVSPost2010Prop54
  1
strokes_ogs.tif
102
RTVSPost2010PropOp54
 70
     1
102
RTVSPost2010Prop55
280
     0
102
RTVSPost2010PropOp55
 70
     1
102
RTVSPost2010Prop56
140
1.0
102
RTVSPost2010PropOp56
 70
     1
102
RTVSPost2010Prop57
140
1.0
102
RTVSPost2010PropOp57
 70
     1
  0
XRECORD
  5
495
102
{ACAD_REACTORS
330
494
102
}
330
494
100
AcDbXrecord
280
     1
102
RTVSPropertyOp0
 70
     0
102
RTVSPropertyOp1
 70
     0
102
RTVSPropertyOp2
 70
     0
102
RTVSPropertyOp3
 70
     0
102
RTVSPropertyOp4
 70
     0
102
RTVSPropertyOp5
 70
     0
102
RTVSPropertyOp6
 70
     0
102
RTVSPropertyOp7
 70
     0
102
RTVSPropertyOp8
 70
     0
102
RTVSPropertyOp9
 70
     0
102
RTVSPropertyOp10
 70
     0
102
RTVSPropertyOp11
 70
     0
102
RTVSPropertyOp12
 70
     0
102
RTVSPropertyOp13
 70
     0
102
RTVSPropertyOp14
 70
     2
102
RTVSPropertyOp15
 70
     0
102
RTVSPropertyOp16
 70
     0
102
RTVSPropertyOp17
 70
     0
102
RTVSPropertyOp18
 70
     0
102
RTVSPropertyOp19
 70
     0
102
RTVSPropertyOp20
 70
     0
102
RTVSPropertyOp21
 70
     0
102
RTVSPropertyOp22
 70
     0
102
RTVSPropertyOp23
 70
     0
102
RTVSPropertyOp24
 70
     0
102
RTVSPropertyOp25
 70
     0
102
RTVSPropertyOp26
 70
     0
102
RTVSPropertyOp27
 70
     0
102
RTVSPropertyOp28
 70
     0
102
RTVSPropertyOp29
 70
     0
102
RTVSPropertyOp30
 70
     0
102
RTVSPropertyOp31
 70
     0
102
RTVSPropertyOp32
 70
     0
102
RTVSPropertyOp33
 70
     0
102
RTVSPropertyOp34
 70
     0
102
RTVSPropertyOp35
 70
     0
102
RTVSPropertyOp36
 70
     0
102
RTVSPropertyOp37
 70
     0
102
RTVSPropertyOp38
 70
     0
102
RTVSPropertyOp39
 70
     0
102
RTVSPropertyOp40
 70
     0
102
RTVSPropertyOp41
 70
     0
102
RTVSPropertyOp42
 70
     0
102
RTVSPropertyOp43
 70
     0
102
RTVSPropertyOp44
 70
     0
102
RTVSPropertyOp45
 70
     0
102
RTVSPropertyOp46
 70
     0
102
RTVSPropertyOp47
 70
     0
102
RTVSPropertyOp48
 70
     0
102
RTVSPropertyOp49
 70
     0
102
RTVSPropertyOp50
 70
     0
102
RTVSPropertyOp51
 70
     0
102
RTVSPropertyOp52
 70
     0
102
RTVSPropertyOp53
 70
     0
102
RTVSPropertyOp54
 70
     0
102
RTVSPropertyOp55
 70
     0
102
RTVSPropertyOp56
 70
     0
102
RTVSPropertyOp57
 70
     0
102
RTVSPost2010Prop28
280
     0
102
RTVSPost2010PropOp28
 70
     0
102
RTVSPost2010Prop29
280
     1
102
RTVSPost2010PropOp29
 70
     0
102
RTVSPost2010Prop30
280
     1
102
RTVSPost2010PropOp30
 70
     0
102
RTVSPost2010Prop31
280
     0
102
RTVSPost2010PropOp31
 70
     0
102
RTVSPost2010Prop32
280
     0
102
RTVSPost2010PropOp32
 70
     0
102
RTVSPost2010Prop33
280
     0
102
RTVSPost2010PropOp33
 70
     0
102
RTVSPost2010Prop34
280
     0
102
RTVSPost2010PropOp34
 70
     0
102
RTVSPost2010Prop35
280
     0
102
RTVSPost2010PropOp35
 70
     0
102
RTVSPost2010Prop36
280
     0
102
RTVSPost2010PropOp36
 70
     0
102
RTVSPost2010Prop37
 90
       50
102
RTVSPost2010PropOp37
 70
     0
102
RTVSPost2010Prop38
140
0.0
102
RTVSPost2010PropOp38
 70
     0
102
RTVSPost2010Prop39
140
1.0
102
RTVSPost2010PropOp39
 70
     0
102
RTVSPost2010Prop40
 90
        0
102
RTVSPost2010PropOp40
 70
     0
102
RTVSPost2010Prop41ColorIndex
 90
       18
102
RTVSPost2010Prop41ColorRGB
 90
        0
102
RTVSPost2010PropOp41
 70
     0
102
RTVSPost2010Prop42
 90
       50
102
RTVSPost2010PropOp42
 70
     0
102
RTVSPost2010Prop43
 90
        3
102
RTVSPost2010PropOp43
 70
     0
102
RTVSPost2010Prop44ColorIndex
 90
        5
102
RTVSPost2010Prop44ColorRGB
 90
      255
102
RTVSPost2010PropOp44
 70
     0
102
RTVSPost2010Prop45
280
     0
102
RTVSPost2010PropOp45
 70
     0
102
RTVSPost2010Prop46
 90
       50
102
RTVSPost2010PropOp46
 70
     0
102
RTVSPost2010Prop47
 90
       50
102
RTVSPost2010PropOp47
 70
     0
102
RTVSPost2010Prop48
 90
       50
102
RTVSPost2010PropOp48
 70
     0
102
RTVSPost2010Prop49
280
     0
102
RTVSPost2010PropOp49
 70
     0
102
RTVSPost2010Prop50
 90
       50
102
RTVSPost2010PropOp50
 70
     0
102
RTVSPost2010Prop51ColorIndex
 90
      256
102
RTVSPost2010Prop51ColorRGB
 90
-16777216
102
RTVSPost2010PropOp51
 70
     0
102
RTVSPost2010Prop52
140
1.0
102
RTVSPost2010PropOp52
 70
     0
102
RTVSPost2010Prop53
 90
        2
102
RTVSPost2010PropOp53
 70
     0
102
RTVSPost2010Prop54
  1
strokes_ogs.tif
102
RTVSPost2010PropOp54
 70
     0
102
RTVSPost2010Prop55
280
     0
102
RTVSPost2010PropOp55
 70
     0
102
RTVSPost2010Prop56
140
1.0
102
RTVSPost2010PropOp56
 70
     0
102
RTVSPost2010Prop57
140
1.0
102
RTVSPost2010PropOp57
 70
     0
  0
XRECORD
  5
48D
102
{ACAD_REACTORS
330
48C
102
}
330
48C
100
AcDbXrecord
280
     1
102
RTVSPropertyOp0
 70
     1
102
RTVSPropertyOp1
 70
     1
102
RTVSPropertyOp2
 70
     1
102
RTVSPropertyOp3
 70
     1
102
RTVSPropertyOp4
 70
     1
102
RTVSPropertyOp5
 70
     1
102
RTVSPropertyOp6
 70
     1
102
RTVSPropertyOp7
 70
     1
102
RTVSPropertyOp8
 70
     1
102
RTVSPropertyOp9
 70
     1
102
RTVSPropertyOp10
 70
     1
102
RTVSPropertyOp11
 70
     1
102
RTVSPropertyOp12
 70
     1
102
RTVSPropertyOp13
 70
     1
102
RTVSPropertyOp14
 70
     1
102
RTVSPropertyOp15
 70
     1
102
RTVSPropertyOp16
 70
     1
102
RTVSPropertyOp17
 70
     1
102
RTVSPropertyOp18
 70
     1
102
RTVSPropertyOp19
 70
     1
102
RTVSPropertyOp20
 70
     1
102
RTVSPropertyOp21
 70
     1
102
RTVSPropertyOp22
 70
     1
102
RTVSPropertyOp23
 70
     1
102
RTVSPropertyOp24
 70
     1
102
RTVSPropertyOp25
 70
     1
102
RTVSPropertyOp26
 70
     1
102
RTVSPropertyOp27
 70
     1
102
RTVSPropertyOp28
 70
     1
102
RTVSPropertyOp29
 70
     1
102
RTVSPropertyOp30
 70
     1
102
RTVSPropertyOp31
 70
     1
102
RTVSPropertyOp32
 70
     1
102
RTVSPropertyOp33
 70
     1
102
RTVSPropertyOp34
 70
     1
102
RTVSPropertyOp35
 70
     1
102
RTVSPropertyOp36
 70
     1
102
RTVSPropertyOp37
 70
     1
102
RTVSPropertyOp38
 70
     1
102
RTVSPropertyOp39
 70
     1
102
RTVSPropertyOp40
 70
     1
102
RTVSPropertyOp41
 70
     1
102
RTVSPropertyOp42
 70
     1
102
RTVSPropertyOp43
 70
     1
102
RTVSPropertyOp44
 70
     1
102
RTVSPropertyOp45
 70
     1
102
RTVSPropertyOp46
 70
     1
102
RTVSPropertyOp47
 70
     1
102
RTVSPropertyOp48
 70
     1
102
RTVSPropertyOp49
 70
     1
102
RTVSPropertyOp50
 70
     1
102
RTVSPropertyOp51
 70
     0
102
RTVSPropertyOp52
 70
     0
102
RTVSPropertyOp53
 70
     1
102
RTVSPropertyOp54
 70
     1
102
RTVSPropertyOp55
 70
     1
102
RTVSPropertyOp56
 70
     1
102
RTVSPropertyOp57
 70
     1
102
RTVSPost2010Prop28
280
     0
102
RTVSPost2010PropOp28
 70
     1
102
RTVSPost2010Prop29
280
     1
102
RTVSPost2010PropOp29
 70
     1
102
RTVSPost2010Prop30
280
     1
102
RTVSPost2010PropOp30
 70
     1
102
RTVSPost2010Prop31
280
     0
102
RTVSPost2010PropOp31
 70
     1
102
RTVSPost2010Prop32
280
     0
102
RTVSPost2010PropOp32
 70
     1
102
RTVSPost2010Prop33
280
     0
102
RTVSPost2010PropOp33
 70
     1
102
RTVSPost2010Prop34
280
     0
102
RTVSPost2010PropOp34
 70
     1
102
RTVSPost2010Prop35
280
     0
102
RTVSPost2010PropOp35
 70
     1
102
RTVSPost2010Prop36
280
     0
102
RTVSPost2010PropOp36
 70
     1
102
RTVSPost2010Prop37
 90
       50
102
RTVSPost2010PropOp37
 70
     1
102
RTVSPost2010Prop38
140
0.0
102
RTVSPost2010PropOp38
 70
     1
102
RTVSPost2010Prop39
140
1.0
102
RTVSPost2010PropOp39
 70
     1
102
RTVSPost2010Prop40
 90
        0
102
RTVSPost2010PropOp40
 70
     1
102
RTVSPost2010Prop41ColorIndex
 90
       18
102
RTVSPost2010Prop41ColorRGB
 90
        0
102
RTVSPost2010PropOp41
 70
     1
102
RTVSPost2010Prop42
 90
       50
102
RTVSPost2010PropOp42
 70
     1
102
RTVSPost2010Prop43
 90
        3
102
RTVSPost2010PropOp43
 70
     1
102
RTVSPost2010Prop44ColorIndex
 90
        5
102
RTVSPost2010Prop44ColorRGB
 90
      255
102
RTVSPost2010PropOp44
 70
     1
102
RTVSPost2010Prop45
280
     0
102
RTVSPost2010PropOp45
 70
     1
102
RTVSPost2010Prop46
 90
       50
102
RTVSPost2010PropOp46
 70
     1
102
RTVSPost2010Prop47
 90
       50
102
RTVSPost2010PropOp47
 70
     1
102
RTVSPost2010Prop48
 90
       50
102
RTVSPost2010PropOp48
 70
     1
102
RTVSPost2010Prop49
280
     0
102
RTVSPost2010PropOp49
 70
     1
102
RTVSPost2010Prop50
 90
       50
102
RTVSPost2010PropOp50
 70
     1
102
RTVSPost2010Prop51ColorIndex
 90
      256
102
RTVSPost2010Prop51ColorRGB
 90
-16777216
102
RTVSPost2010PropOp51
 70
     0
102
RTVSPost2010Prop52
140
1.0
102
RTVSPost2010PropOp52
 70
     0
102
RTVSPost2010Prop53
 90
        2
102
RTVSPost2010PropOp53
 70
     1
102
RTVSPost2010Prop54
  1
strokes_ogs.tif
102
RTVSPost2010PropOp54
 70
     1
102
RTVSPost2010Prop55
280
     0
102
RTVSPost2010PropOp55
 70
     1
102
RTVSPost2010Prop56
140
1.0
102
RTVSPost2010PropOp56
 70
     1
102
RTVSPost2010Prop57
140
1.0
102
RTVSPost2010PropOp57
 70
     1
  0
XRECORD
  5
471
102
{ACAD_REACTORS
330
470
102
}
330
470
100
AcDbXrecord
280
     1
102
RTVSPropertyOp0
 70
     1
102
RTVSPropertyOp1
 70
     1
102
RTVSPropertyOp2
 70
     1
102
RTVSPropertyOp3
 70
     1
102
RTVSPropertyOp4
 70
     1
102
RTVSPropertyOp5
 70
     1
102
RTVSPropertyOp6
 70
     1
102
RTVSPropertyOp7
 70
     1
102
RTVSPropertyOp8
 70
     1
102
RTVSPropertyOp9
 70
     1
102
RTVSPropertyOp10
 70
     1
102
RTVSPropertyOp11
 70
     1
102
RTVSPropertyOp12
 70
     1
102
RTVSPropertyOp13
 70
     1
102
RTVSPropertyOp14
 70
     1
102
RTVSPropertyOp15
 70
     1
102
RTVSPropertyOp16
 70
     1
102
RTVSPropertyOp17
 70
     1
102
RTVSPropertyOp18
 70
     1
102
RTVSPropertyOp19
 70
     1
102
RTVSPropertyOp20
 70
     1
102
RTVSPropertyOp21
 70
     1
102
RTVSPropertyOp22
 70
     1
102
RTVSPropertyOp23
 70
     1
102
RTVSPropertyOp24
 70
     1
102
RTVSPropertyOp25
 70
     1
102
RTVSPropertyOp26
 70
     1
102
RTVSPropertyOp27
 70
     1
102
RTVSPropertyOp28
 70
     1
102
RTVSPropertyOp29
 70
     1
102
RTVSPropertyOp30
 70
     1
102
RTVSPropertyOp31
 70
     1
102
RTVSPropertyOp32
 70
     1
102
RTVSPropertyOp33
 70
     1
102
RTVSPropertyOp34
 70
     1
102
RTVSPropertyOp35
 70
     1
102
RTVSPropertyOp36
 70
     1
102
RTVSPropertyOp37
 70
     1
102
RTVSPropertyOp38
 70
     1
102
RTVSPropertyOp39
 70
     1
102
RTVSPropertyOp40
 70
     1
102
RTVSPropertyOp41
 70
     1
102
RTVSPropertyOp42
 70
     1
102
RTVSPropertyOp43
 70
     1
102
RTVSPropertyOp44
 70
     1
102
RTVSPropertyOp45
 70
     1
102
RTVSPropertyOp46
 70
     1
102
RTVSPropertyOp47
 70
     1
102
RTVSPropertyOp48
 70
     1
102
RTVSPropertyOp49
 70
     1
102
RTVSPropertyOp50
 70
     1
102
RTVSPropertyOp51
 70
     0
102
RTVSPropertyOp52
 70
     0
102
RTVSPropertyOp53
 70
     1
102
RTVSPropertyOp54
 70
     1
102
RTVSPropertyOp55
 70
     1
102
RTVSPropertyOp56
 70
     1
102
RTVSPropertyOp57
 70
     1
102
RTVSPost2010Prop28
280
     0
102
RTVSPost2010PropOp28
 70
     1
102
RTVSPost2010Prop29
280
     1
102
RTVSPost2010PropOp29
 70
     1
102
RTVSPost2010Prop30
280
     1
102
RTVSPost2010PropOp30
 70
     1
102
RTVSPost2010Prop31
280
     0
102
RTVSPost2010PropOp31
 70
     1
102
RTVSPost2010Prop32
280
     0
102
RTVSPost2010PropOp32
 70
     1
102
RTVSPost2010Prop33
280
     0
102
RTVSPost2010PropOp33
 70
     1
102
RTVSPost2010Prop34
280
     0
102
RTVSPost2010PropOp34
 70
     1
102
RTVSPost2010Prop35
280
     0
102
RTVSPost2010PropOp35
 70
     1
102
RTVSPost2010Prop36
280
     0
102
RTVSPost2010PropOp36
 70
     1
102
RTVSPost2010Prop37
 90
       50
102
RTVSPost2010PropOp37
 70
     1
102
RTVSPost2010Prop38
140
0.0
102
RTVSPost2010PropOp38
 70
     1
102
RTVSPost2010Prop39
140
1.0
102
RTVSPost2010PropOp39
 70
     1
102
RTVSPost2010Prop40
 90
        0
102
RTVSPost2010PropOp40
 70
     1
102
RTVSPost2010Prop41ColorIndex
 90
       18
102
RTVSPost2010Prop41ColorRGB
 90
        0
102
RTVSPost2010PropOp41
 70
     1
102
RTVSPost2010Prop42
 90
       50
102
RTVSPost2010PropOp42
 70
     1
102
RTVSPost2010Prop43
 90
        3
102
RTVSPost2010PropOp43
 70
     1
102
RTVSPost2010Prop44ColorIndex
 90
        5
102
RTVSPost2010Prop44ColorRGB
 90
      255
102
RTVSPost2010PropOp44
 70
     1
102
RTVSPost2010Prop45
280
     0
102
RTVSPost2010PropOp45
 70
     1
102
RTVSPost2010Prop46
 90
       50
102
RTVSPost2010PropOp46
 70
     1
102
RTVSPost2010Prop47
 90
       50
102
RTVSPost2010PropOp47
 70
     1
102
RTVSPost2010Prop48
 90
       50
102
RTVSPost2010PropOp48
 70
     1
102
RTVSPost2010Prop49
280
     0
102
RTVSPost2010PropOp49
 70
     1
102
RTVSPost2010Prop50
 90
       50
102
RTVSPost2010PropOp50
 70
     1
102
RTVSPost2010Prop51ColorIndex
 90
      256
102
RTVSPost2010Prop51ColorRGB
 90
-16777216
102
RTVSPost2010PropOp51
 70
     0
102
RTVSPost2010Prop52
140
1.0
102
RTVSPost2010PropOp52
 70
     0
102
RTVSPost2010Prop53
 90
        2
102
RTVSPost2010PropOp53
 70
     1
102
RTVSPost2010Prop54
  1
strokes_ogs.tif
102
RTVSPost2010PropOp54
 70
     1
102
RTVSPost2010Prop55
280
     0
102
RTVSPost2010PropOp55
 70
     1
102
RTVSPost2010Prop56
140
1.0
102
RTVSPost2010PropOp56
 70
     1
102
RTVSPost2010Prop57
140
1.0
102
RTVSPost2010PropOp57
 70
     1
  0
XRECORD
  5
473
102
{ACAD_REACTORS
330
472
102
}
330
472
100
AcDbXrecord
280
     1
102
RTVSPropertyOp0
 70
     1
102
RTVSPropertyOp1
 70
     1
102
RTVSPropertyOp2
 70
     1
102
RTVSPropertyOp3
 70
     1
102
RTVSPropertyOp4
 70
     1
102
RTVSPropertyOp5
 70
     1
102
RTVSPropertyOp6
 70
     1
102
RTVSPropertyOp7
 70
     1
102
RTVSPropertyOp8
 70
     1
102
RTVSPropertyOp9
 70
     1
102
RTVSPropertyOp10
 70
     1
102
RTVSPropertyOp11
 70
     1
102
RTVSPropertyOp12
 70
     1
102
RTVSPropertyOp13
 70
     1
102
RTVSPropertyOp14
 70
     1
102
RTVSPropertyOp15
 70
     1
102
RTVSPropertyOp16
 70
     1
102
RTVSPropertyOp17
 70
     1
102
RTVSPropertyOp18
 70
     1
102
RTVSPropertyOp19
 70
     1
102
RTVSPropertyOp20
 70
     1
102
RTVSPropertyOp21
 70
     1
102
RTVSPropertyOp22
 70
     1
102
RTVSPropertyOp23
 70
     1
102
RTVSPropertyOp24
 70
     1
102
RTVSPropertyOp25
 70
     1
102
RTVSPropertyOp26
 70
     1
102
RTVSPropertyOp27
 70
     1
102
RTVSPropertyOp28
 70
     1
102
RTVSPropertyOp29
 70
     1
102
RTVSPropertyOp30
 70
     1
102
RTVSPropertyOp31
 70
     1
102
RTVSPropertyOp32
 70
     1
102
RTVSPropertyOp33
 70
     1
102
RTVSPropertyOp34
 70
     1
102
RTVSPropertyOp35
 70
     1
102
RTVSPropertyOp36
 70
     1
102
RTVSPropertyOp37
 70
     1
102
RTVSPropertyOp38
 70
     1
102
RTVSPropertyOp39
 70
     1
102
RTVSPropertyOp40
 70
     1
102
RTVSPropertyOp41
 70
     1
102
RTVSPropertyOp42
 70
     1
102
RTVSPropertyOp43
 70
     1
102
RTVSPropertyOp44
 70
     1
102
RTVSPropertyOp45
 70
     1
102
RTVSPropertyOp46
 70
     1
102
RTVSPropertyOp47
 70
     1
102
RTVSPropertyOp48
 70
     1
102
RTVSPropertyOp49
 70
     1
102
RTVSPropertyOp50
 70
     1
102
RTVSPropertyOp51
 70
     0
102
RTVSPropertyOp52
 70
     0
102
RTVSPropertyOp53
 70
     1
102
RTVSPropertyOp54
 70
     1
102
RTVSPropertyOp55
 70
     1
102
RTVSPropertyOp56
 70
     1
102
RTVSPropertyOp57
 70
     1
102
RTVSPost2010Prop28
280
     0
102
RTVSPost2010PropOp28
 70
     1
102
RTVSPost2010Prop29
280
     1
102
RTVSPost2010PropOp29
 70
     1
102
RTVSPost2010Prop30
280
     1
102
RTVSPost2010PropOp30
 70
     1
102
RTVSPost2010Prop31
280
     0
102
RTVSPost2010PropOp31
 70
     1
102
RTVSPost2010Prop32
280
     0
102
RTVSPost2010PropOp32
 70
     1
102
RTVSPost2010Prop33
280
     0
102
RTVSPost2010PropOp33
 70
     1
102
RTVSPost2010Prop34
280
     0
102
RTVSPost2010PropOp34
 70
     1
102
RTVSPost2010Prop35
280
     0
102
RTVSPost2010PropOp35
 70
     1
102
RTVSPost2010Prop36
280
     0
102
RTVSPost2010PropOp36
 70
     1
102
RTVSPost2010Prop37
 90
       50
102
RTVSPost2010PropOp37
 70
     1
102
RTVSPost2010Prop38
140
0.0
102
RTVSPost2010PropOp38
 70
     1
102
RTVSPost2010Prop39
140
1.0
102
RTVSPost2010PropOp39
 70
     1
102
RTVSPost2010Prop40
 90
        0
102
RTVSPost2010PropOp40
 70
     1
102
RTVSPost2010Prop41ColorIndex
 90
       18
102
RTVSPost2010Prop41ColorRGB
 90
        0
102
RTVSPost2010PropOp41
 70
     1
102
RTVSPost2010Prop42
 90
       50
102
RTVSPost2010PropOp42
 70
     1
102
RTVSPost2010Prop43
 90
        3
102
RTVSPost2010PropOp43
 70
     1
102
RTVSPost2010Prop44ColorIndex
 90
        5
102
RTVSPost2010Prop44ColorRGB
 90
      255
102
RTVSPost2010PropOp44
 70
     1
102
RTVSPost2010Prop45
280
     0
102
RTVSPost2010PropOp45
 70
     1
102
RTVSPost2010Prop46
 90
       50
102
RTVSPost2010PropOp46
 70
     1
102
RTVSPost2010Prop47
 90
       50
102
RTVSPost2010PropOp47
 70
     1
102
RTVSPost2010Prop48
 90
       50
102
RTVSPost2010PropOp48
 70
     1
102
RTVSPost2010Prop49
280
     0
102
RTVSPost2010PropOp49
 70
     1
102
RTVSPost2010Prop50
 90
       50
102
RTVSPost2010PropOp50
 70
     1
102
RTVSPost2010Prop51ColorIndex
 90
      256
102
RTVSPost2010Prop51ColorRGB
 90
-16777216
102
RTVSPost2010PropOp51
 70
     0
102
RTVSPost2010Prop52
140
1.0
102
RTVSPost2010PropOp52
 70
     0
102
RTVSPost2010Prop53
 90
        2
102
RTVSPost2010PropOp53
 70
     1
102
RTVSPost2010Prop54
  1
strokes_ogs.tif
102
RTVSPost2010PropOp54
 70
     1
102
RTVSPost2010Prop55
280
     0
102
RTVSPost2010PropOp55
 70
     1
102
RTVSPost2010Prop56
140
1.0
102
RTVSPost2010PropOp56
 70
     1
102
RTVSPost2010Prop57
140
1.0
102
RTVSPost2010PropOp57
 70
     1
  0
XRECORD
  5
475
102
{ACAD_REACTORS
330
474
102
}
330
474
100
AcDbXrecord
280
     1
102
RTVSPropertyOp0
 70
     1
102
RTVSPropertyOp1
 70
     1
102
RTVSPropertyOp2
 70
     1
102
RTVSPropertyOp3
 70
     1
102
RTVSPropertyOp4
 70
     1
102
RTVSPropertyOp5
 70
     1
102
RTVSPropertyOp6
 70
     1
102
RTVSPropertyOp7
 70
     1
102
RTVSPropertyOp8
 70
     1
102
RTVSPropertyOp9
 70
     1
102
RTVSPropertyOp10
 70
     1
102
RTVSPropertyOp11
 70
     1
102
RTVSPropertyOp12
 70
     1
102
RTVSPropertyOp13
 70
     1
102
RTVSPropertyOp14
 70
     1
102
RTVSPropertyOp15
 70
     1
102
RTVSPropertyOp16
 70
     1
102
RTVSPropertyOp17
 70
     1
102
RTVSPropertyOp18
 70
     1
102
RTVSPropertyOp19
 70
     1
102
RTVSPropertyOp20
 70
     1
102
RTVSPropertyOp21
 70
     1
102
RTVSPropertyOp22
 70
     1
102
RTVSPropertyOp23
 70
     1
102
RTVSPropertyOp24
 70
     1
102
RTVSPropertyOp25
 70
     1
102
RTVSPropertyOp26
 70
     1
102
RTVSPropertyOp27
 70
     1
102
RTVSPropertyOp28
 70
     1
102
RTVSPropertyOp29
 70
     1
102
RTVSPropertyOp30
 70
     1
102
RTVSPropertyOp31
 70
     1
102
RTVSPropertyOp32
 70
     1
102
RTVSPropertyOp33
 70
     1
102
RTVSPropertyOp34
 70
     1
102
RTVSPropertyOp35
 70
     1
102
RTVSPropertyOp36
 70
     1
102
RTVSPropertyOp37
 70
     1
102
RTVSPropertyOp38
 70
     1
102
RTVSPropertyOp39
 70
     1
102
RTVSPropertyOp40
 70
     1
102
RTVSPropertyOp41
 70
     1
102
RTVSPropertyOp42
 70
     1
102
RTVSPropertyOp43
 70
     1
102
RTVSPropertyOp44
 70
     1
102
RTVSPropertyOp45
 70
     1
102
RTVSPropertyOp46
 70
     1
102
RTVSPropertyOp47
 70
     1
102
RTVSPropertyOp48
 70
     1
102
RTVSPropertyOp49
 70
     1
102
RTVSPropertyOp50
 70
     1
102
RTVSPropertyOp51
 70
     0
102
RTVSPropertyOp52
 70
     0
102
RTVSPropertyOp53
 70
     1
102
RTVSPropertyOp54
 70
     1
102
RTVSPropertyOp55
 70
     1
102
RTVSPropertyOp56
 70
     1
102
RTVSPropertyOp57
 70
     1
102
RTVSPost2010Prop28
280
     0
102
RTVSPost2010PropOp28
 70
     1
102
RTVSPost2010Prop29
280
     1
102
RTVSPost2010PropOp29
 70
     1
102
RTVSPost2010Prop30
280
     1
102
RTVSPost2010PropOp30
 70
     1
102
RTVSPost2010Prop31
280
     0
102
RTVSPost2010PropOp31
 70
     1
102
RTVSPost2010Prop32
280
     0
102
RTVSPost2010PropOp32
 70
     1
102
RTVSPost2010Prop33
280
     0
102
RTVSPost2010PropOp33
 70
     1
102
RTVSPost2010Prop34
280
     0
102
RTVSPost2010PropOp34
 70
     1
102
RTVSPost2010Prop35
280
     0
102
RTVSPost2010PropOp35
 70
     1
102
RTVSPost2010Prop36
280
     0
102
RTVSPost2010PropOp36
 70
     1
102
RTVSPost2010Prop37
 90
       50
102
RTVSPost2010PropOp37
 70
     1
102
RTVSPost2010Prop38
140
0.0
102
RTVSPost2010PropOp38
 70
     1
102
RTVSPost2010Prop39
140
1.0
102
RTVSPost2010PropOp39
 70
     1
102
RTVSPost2010Prop40
 90
        0
102
RTVSPost2010PropOp40
 70
     1
102
RTVSPost2010Prop41ColorIndex
 90
       18
102
RTVSPost2010Prop41ColorRGB
 90
        0
102
RTVSPost2010PropOp41
 70
     1
102
RTVSPost2010Prop42
 90
       50
102
RTVSPost2010PropOp42
 70
     1
102
RTVSPost2010Prop43
 90
        3
102
RTVSPost2010PropOp43
 70
     1
102
RTVSPost2010Prop44ColorIndex
 90
        5
102
RTVSPost2010Prop44ColorRGB
 90
      255
102
RTVSPost2010PropOp44
 70
     1
102
RTVSPost2010Prop45
280
     0
102
RTVSPost2010PropOp45
 70
     1
102
RTVSPost2010Prop46
 90
       50
102
RTVSPost2010PropOp46
 70
     1
102
RTVSPost2010Prop47
 90
       50
102
RTVSPost2010PropOp47
 70
     1
102
RTVSPost2010Prop48
 90
       50
102
RTVSPost2010PropOp48
 70
     1
102
RTVSPost2010Prop49
280
     0
102
RTVSPost2010PropOp49
 70
     1
102
RTVSPost2010Prop50
 90
       50
102
RTVSPost2010PropOp50
 70
     1
102
RTVSPost2010Prop51ColorIndex
 90
      256
102
RTVSPost2010Prop51ColorRGB
 90
-16777216
102
RTVSPost2010PropOp51
 70
     0
102
RTVSPost2010Prop52
140
1.0
102
RTVSPost2010PropOp52
 70
     0
102
RTVSPost2010Prop53
 90
        2
102
RTVSPost2010PropOp53
 70
     1
102
RTVSPost2010Prop54
  1
strokes_ogs.tif
102
RTVSPost2010PropOp54
 70
     1
102
RTVSPost2010Prop55
280
     0
102
RTVSPost2010PropOp55
 70
     1
102
RTVSPost2010Prop56
140
1.0
102
RTVSPost2010PropOp56
 70
     1
102
RTVSPost2010Prop57
140
1.0
102
RTVSPost2010PropOp57
 70
     1
  0
XRECORD
  5
477
102
{ACAD_REACTORS
330
476
102
}
330
476
100
AcDbXrecord
280
     1
102
RTVSPropertyOp0
 70
     1
102
RTVSPropertyOp1
 70
     1
102
RTVSPropertyOp2
 70
     1
102
RTVSPropertyOp3
 70
     1
102
RTVSPropertyOp4
 70
     1
102
RTVSPropertyOp5
 70
     1
102
RTVSPropertyOp6
 70
     1
102
RTVSPropertyOp7
 70
     1
102
RTVSPropertyOp8
 70
     1
102
RTVSPropertyOp9
 70
     1
102
RTVSPropertyOp10
 70
     1
102
RTVSPropertyOp11
 70
     1
102
RTVSPropertyOp12
 70
     1
102
RTVSPropertyOp13
 70
     1
102
RTVSPropertyOp14
 70
     1
102
RTVSPropertyOp15
 70
     1
102
RTVSPropertyOp16
 70
     1
102
RTVSPropertyOp17
 70
     1
102
RTVSPropertyOp18
 70
     1
102
RTVSPropertyOp19
 70
     1
102
RTVSPropertyOp20
 70
     1
102
RTVSPropertyOp21
 70
     1
102
RTVSPropertyOp22
 70
     1
102
RTVSPropertyOp23
 70
     1
102
RTVSPropertyOp24
 70
     1
102
RTVSPropertyOp25
 70
     1
102
RTVSPropertyOp26
 70
     1
102
RTVSPropertyOp27
 70
     1
102
RTVSPropertyOp28
 70
     1
102
RTVSPropertyOp29
 70
     1
102
RTVSPropertyOp30
 70
     1
102
RTVSPropertyOp31
 70
     1
102
RTVSPropertyOp32
 70
     1
102
RTVSPropertyOp33
 70
     1
102
RTVSPropertyOp34
 70
     1
102
RTVSPropertyOp35
 70
     1
102
RTVSPropertyOp36
 70
     1
102
RTVSPropertyOp37
 70
     1
102
RTVSPropertyOp38
 70
     1
102
RTVSPropertyOp39
 70
     1
102
RTVSPropertyOp40
 70
     1
102
RTVSPropertyOp41
 70
     1
102
RTVSPropertyOp42
 70
     1
102
RTVSPropertyOp43
 70
     1
102
RTVSPropertyOp44
 70
     1
102
RTVSPropertyOp45
 70
     1
102
RTVSPropertyOp46
 70
     1
102
RTVSPropertyOp47
 70
     1
102
RTVSPropertyOp48
 70
     1
102
RTVSPropertyOp49
 70
     1
102
RTVSPropertyOp50
 70
     1
102
RTVSPropertyOp51
 70
     0
102
RTVSPropertyOp52
 70
     0
102
RTVSPropertyOp53
 70
     1
102
RTVSPropertyOp54
 70
     1
102
RTVSPropertyOp55
 70
     1
102
RTVSPropertyOp56
 70
     1
102
RTVSPropertyOp57
 70
     1
102
RTVSPost2010Prop28
280
     0
102
RTVSPost2010PropOp28
 70
     1
102
RTVSPost2010Prop29
280
     1
102
RTVSPost2010PropOp29
 70
     1
102
RTVSPost2010Prop30
280
     1
102
RTVSPost2010PropOp30
 70
     1
102
RTVSPost2010Prop31
280
     0
102
RTVSPost2010PropOp31
 70
     1
102
RTVSPost2010Prop32
280
     0
102
RTVSPost2010PropOp32
 70
     1
102
RTVSPost2010Prop33
280
     0
102
RTVSPost2010PropOp33
 70
     1
102
RTVSPost2010Prop34
280
     0
102
RTVSPost2010PropOp34
 70
     1
102
RTVSPost2010Prop35
280
     0
102
RTVSPost2010PropOp35
 70
     1
102
RTVSPost2010Prop36
280
     0
102
RTVSPost2010PropOp36
 70
     1
102
RTVSPost2010Prop37
 90
       50
102
RTVSPost2010PropOp37
 70
     1
102
RTVSPost2010Prop38
140
0.0
102
RTVSPost2010PropOp38
 70
     1
102
RTVSPost2010Prop39
140
1.0
102
RTVSPost2010PropOp39
 70
     1
102
RTVSPost2010Prop40
 90
        0
102
RTVSPost2010PropOp40
 70
     1
102
RTVSPost2010Prop41ColorIndex
 90
       18
102
RTVSPost2010Prop41ColorRGB
 90
        0
102
RTVSPost2010PropOp41
 70
     1
102
RTVSPost2010Prop42
 90
       50
102
RTVSPost2010PropOp42
 70
     1
102
RTVSPost2010Prop43
 90
        3
102
RTVSPost2010PropOp43
 70
     1
102
RTVSPost2010Prop44ColorIndex
 90
        5
102
RTVSPost2010Prop44ColorRGB
 90
      255
102
RTVSPost2010PropOp44
 70
     1
102
RTVSPost2010Prop45
280
     0
102
RTVSPost2010PropOp45
 70
     1
102
RTVSPost2010Prop46
 90
       50
102
RTVSPost2010PropOp46
 70
     1
102
RTVSPost2010Prop47
 90
       50
102
RTVSPost2010PropOp47
 70
     1
102
RTVSPost2010Prop48
 90
       50
102
RTVSPost2010PropOp48
 70
     1
102
RTVSPost2010Prop49
280
     0
102
RTVSPost2010PropOp49
 70
     1
102
RTVSPost2010Prop50
 90
       50
102
RTVSPost2010PropOp50
 70
     1
102
RTVSPost2010Prop51ColorIndex
 90
      256
102
RTVSPost2010Prop51ColorRGB
 90
-16777216
102
RTVSPost2010PropOp51
 70
     0
102
RTVSPost2010Prop52
140
1.0
102
RTVSPost2010PropOp52
 70
     0
102
RTVSPost2010Prop53
 90
        2
102
RTVSPost2010PropOp53
 70
     1
102
RTVSPost2010Prop54
  1
strokes_ogs.tif
102
RTVSPost2010PropOp54
 70
     1
102
RTVSPost2010Prop55
280
     0
102
RTVSPost2010PropOp55
 70
     1
102
RTVSPost2010Prop56
140
1.0
102
RTVSPost2010PropOp56
 70
     1
102
RTVSPost2010Prop57
140
1.0
102
RTVSPost2010PropOp57
 70
     1
  0
XRECORD
  5
47D
102
{ACAD_REACTORS
330
47C
102
}
330
47C
100
AcDbXrecord
280
     1
102
RTVSPropertyOp0
 70
     1
102
RTVSPropertyOp1
 70
     1
102
RTVSPropertyOp2
 70
     1
102
RTVSPropertyOp3
 70
     1
102
RTVSPropertyOp4
 70
     1
102
RTVSPropertyOp5
 70
     1
102
RTVSPropertyOp6
 70
     1
102
RTVSPropertyOp7
 70
     1
102
RTVSPropertyOp8
 70
     1
102
RTVSPropertyOp9
 70
     1
102
RTVSPropertyOp10
 70
     1
102
RTVSPropertyOp11
 70
     1
102
RTVSPropertyOp12
 70
     1
102
RTVSPropertyOp13
 70
     1
102
RTVSPropertyOp14
 70
     1
102
RTVSPropertyOp15
 70
     1
102
RTVSPropertyOp16
 70
     1
102
RTVSPropertyOp17
 70
     1
102
RTVSPropertyOp18
 70
     1
102
RTVSPropertyOp19
 70
     1
102
RTVSPropertyOp20
 70
     1
102
RTVSPropertyOp21
 70
     1
102
RTVSPropertyOp22
 70
     1
102
RTVSPropertyOp23
 70
     1
102
RTVSPropertyOp24
 70
     1
102
RTVSPropertyOp25
 70
     1
102
RTVSPropertyOp26
 70
     1
102
RTVSPropertyOp27
 70
     1
102
RTVSPropertyOp28
 70
     1
102
RTVSPropertyOp29
 70
     1
102
RTVSPropertyOp30
 70
     1
102
RTVSPropertyOp31
 70
     1
102
RTVSPropertyOp32
 70
     1
102
RTVSPropertyOp33
 70
     1
102
RTVSPropertyOp34
 70
     1
102
RTVSPropertyOp35
 70
     1
102
RTVSPropertyOp36
 70
     1
102
RTVSPropertyOp37
 70
     1
102
RTVSPropertyOp38
 70
     1
102
RTVSPropertyOp39
 70
     1
102
RTVSPropertyOp40
 70
     1
102
RTVSPropertyOp41
 70
     1
102
RTVSPropertyOp42
 70
     1
102
RTVSPropertyOp43
 70
     1
102
RTVSPropertyOp44
 70
     1
102
RTVSPropertyOp45
 70
     1
102
RTVSPropertyOp46
 70
     1
102
RTVSPropertyOp47
 70
     1
102
RTVSPropertyOp48
 70
     1
102
RTVSPropertyOp49
 70
     1
102
RTVSPropertyOp50
 70
     1
102
RTVSPropertyOp51
 70
     0
102
RTVSPropertyOp52
 70
     0
102
RTVSPropertyOp53
 70
     1
102
RTVSPropertyOp54
 70
     1
102
RTVSPropertyOp55
 70
     1
102
RTVSPropertyOp56
 70
     1
102
RTVSPropertyOp57
 70
     1
102
RTVSPost2010Prop28
280
     0
102
RTVSPost2010PropOp28
 70
     1
102
RTVSPost2010Prop29
280
     1
102
RTVSPost2010PropOp29
 70
     1
102
RTVSPost2010Prop30
280
     1
102
RTVSPost2010PropOp30
 70
     1
102
RTVSPost2010Prop31
280
     0
102
RTVSPost2010PropOp31
 70
     1
102
RTVSPost2010Prop32
280
     0
102
RTVSPost2010PropOp32
 70
     1
102
RTVSPost2010Prop33
280
     0
102
RTVSPost2010PropOp33
 70
     1
102
RTVSPost2010Prop34
280
     0
102
RTVSPost2010PropOp34
 70
     1
102
RTVSPost2010Prop35
280
     0
102
RTVSPost2010PropOp35
 70
     1
102
RTVSPost2010Prop36
280
     0
102
RTVSPost2010PropOp36
 70
     1
102
RTVSPost2010Prop37
 90
       50
102
RTVSPost2010PropOp37
 70
     1
102
RTVSPost2010Prop38
140
0.0
102
RTVSPost2010PropOp38
 70
     1
102
RTVSPost2010Prop39
140
1.0
102
RTVSPost2010PropOp39
 70
     1
102
RTVSPost2010Prop40
 90
        0
102
RTVSPost2010PropOp40
 70
     1
102
RTVSPost2010Prop41ColorIndex
 90
       18
102
RTVSPost2010Prop41ColorRGB
 90
        0
102
RTVSPost2010PropOp41
 70
     1
102
RTVSPost2010Prop42
 90
       50
102
RTVSPost2010PropOp42
 70
     1
102
RTVSPost2010Prop43
 90
        3
102
RTVSPost2010PropOp43
 70
     1
102
RTVSPost2010Prop44ColorIndex
 90
        5
102
RTVSPost2010Prop44ColorRGB
 90
      255
102
RTVSPost2010PropOp44
 70
     1
102
RTVSPost2010Prop45
280
     0
102
RTVSPost2010PropOp45
 70
     1
102
RTVSPost2010Prop46
 90
       50
102
RTVSPost2010PropOp46
 70
     1
102
RTVSPost2010Prop47
 90
       50
102
RTVSPost2010PropOp47
 70
     1
102
RTVSPost2010Prop48
 90
       50
102
RTVSPost2010PropOp48
 70
     1
102
RTVSPost2010Prop49
280
     0
102
RTVSPost2010PropOp49
 70
     1
102
RTVSPost2010Prop50
 90
       50
102
RTVSPost2010PropOp50
 70
     1
102
RTVSPost2010Prop51ColorIndex
 90
      256
102
RTVSPost2010Prop51ColorRGB
 90
-16777216
102
RTVSPost2010PropOp51
 70
     0
102
RTVSPost2010Prop52
140
1.0
102
RTVSPost2010PropOp52
 70
     0
102
RTVSPost2010Prop53
 90
        2
102
RTVSPost2010PropOp53
 70
     1
102
RTVSPost2010Prop54
  1
strokes_ogs.tif
102
RTVSPost2010PropOp54
 70
     1
102
RTVSPost2010Prop55
280
     0
102
RTVSPost2010PropOp55
 70
     1
102
RTVSPost2010Prop56
140
1.0
102
RTVSPost2010PropOp56
 70
     1
102
RTVSPost2010Prop57
140
1.0
102
RTVSPost2010PropOp57
 70
     1
  0
XRECORD
  5
491
102
{ACAD_REACTORS
330
490
102
}
330
490
100
AcDbXrecord
280
     1
102
RTVSPropertyOp0
 70
     0
102
RTVSPropertyOp1
 70
     0
102
RTVSPropertyOp2
 70
     0
102
RTVSPropertyOp3
 70
     0
102
RTVSPropertyOp4
 70
     0
102
RTVSPropertyOp5
 70
     0
102
RTVSPropertyOp6
 70
     0
102
RTVSPropertyOp7
 70
     0
102
RTVSPropertyOp8
 70
     0
102
RTVSPropertyOp9
 70
     0
102
RTVSPropertyOp10
 70
     0
102
RTVSPropertyOp11
 70
     0
102
RTVSPropertyOp12
 70
     0
102
RTVSPropertyOp13
 70
     0
102
RTVSPropertyOp14
 70
     2
102
RTVSPropertyOp15
 70
     0
102
RTVSPropertyOp16
 70
     0
102
RTVSPropertyOp17
 70
     0
102
RTVSPropertyOp18
 70
     0
102
RTVSPropertyOp19
 70
     0
102
RTVSPropertyOp20
 70
     0
102
RTVSPropertyOp21
 70
     0
102
RTVSPropertyOp22
 70
     0
102
RTVSPropertyOp23
 70
     0
102
RTVSPropertyOp24
 70
     0
102
RTVSPropertyOp25
 70
     0
102
RTVSPropertyOp26
 70
     0
102
RTVSPropertyOp27
 70
     0
102
RTVSPropertyOp28
 70
     0
102
RTVSPropertyOp29
 70
     0
102
RTVSPropertyOp30
 70
     0
102
RTVSPropertyOp31
 70
     0
102
RTVSPropertyOp32
 70
     0
102
RTVSPropertyOp33
 70
     0
102
RTVSPropertyOp34
 70
     0
102
RTVSPropertyOp35
 70
     0
102
RTVSPropertyOp36
 70
     0
102
RTVSPropertyOp37
 70
     0
102
RTVSPropertyOp38
 70
     0
102
RTVSPropertyOp39
 70
     0
102
RTVSPropertyOp40
 70
     0
102
RTVSPropertyOp41
 70
     0
102
RTVSPropertyOp42
 70
     0
102
RTVSPropertyOp43
 70
     0
102
RTVSPropertyOp44
 70
     0
102
RTVSPropertyOp45
 70
     0
102
RTVSPropertyOp46
 70
     0
102
RTVSPropertyOp47
 70
     0
102
RTVSPropertyOp48
 70
     0
102
RTVSPropertyOp49
 70
     0
102
RTVSPropertyOp50
 70
     0
102
RTVSPropertyOp51
 70
     0
102
RTVSPropertyOp52
 70
     0
102
RTVSPropertyOp53
 70
     0
102
RTVSPropertyOp54
 70
     0
102
RTVSPropertyOp55
 70
     0
102
RTVSPropertyOp56
 70
     0
102
RTVSPropertyOp57
 70
     0
102
RTVSPost2010Prop28
280
     0
102
RTVSPost2010PropOp28
 70
     0
102
RTVSPost2010Prop29
280
     1
102
RTVSPost2010PropOp29
 70
     0
102
RTVSPost2010Prop30
280
     1
102
RTVSPost2010PropOp30
 70
     0
102
RTVSPost2010Prop31
280
     0
102
RTVSPost2010PropOp31
 70
     0
102
RTVSPost2010Prop32
280
     0
102
RTVSPost2010PropOp32
 70
     0
102
RTVSPost2010Prop33
280
     0
102
RTVSPost2010PropOp33
 70
     0
102
RTVSPost2010Prop34
280
     0
102
RTVSPost2010PropOp34
 70
     0
102
RTVSPost2010Prop35
280
     0
102
RTVSPost2010PropOp35
 70
     0
102
RTVSPost2010Prop36
280
     0
102
RTVSPost2010PropOp36
 70
     0
102
RTVSPost2010Prop37
 90
       50
102
RTVSPost2010PropOp37
 70
     0
102
RTVSPost2010Prop38
140
0.0
102
RTVSPost2010PropOp38
 70
     0
102
RTVSPost2010Prop39
140
1.0
102
RTVSPost2010PropOp39
 70
     0
102
RTVSPost2010Prop40
 90
        0
102
RTVSPost2010PropOp40
 70
     0
102
RTVSPost2010Prop41ColorIndex
 90
       18
102
RTVSPost2010Prop41ColorRGB
 90
        0
102
RTVSPost2010PropOp41
 70
     0
102
RTVSPost2010Prop42
 90
       50
102
RTVSPost2010PropOp42
 70
     0
102
RTVSPost2010Prop43
 90
        3
102
RTVSPost2010PropOp43
 70
     0
102
RTVSPost2010Prop44ColorIndex
 90
        5
102
RTVSPost2010Prop44ColorRGB
 90
      255
102
RTVSPost2010PropOp44
 70
     0
102
RTVSPost2010Prop45
280
     0
102
RTVSPost2010PropOp45
 70
     0
102
RTVSPost2010Prop46
 90
       50
102
RTVSPost2010PropOp46
 70
     0
102
RTVSPost2010Prop47
 90
       50
102
RTVSPost2010PropOp47
 70
     0
102
RTVSPost2010Prop48
 90
       50
102
RTVSPost2010PropOp48
 70
     0
102
RTVSPost2010Prop49
280
     0
102
RTVSPost2010PropOp49
 70
     0
102
RTVSPost2010Prop50
 90
       50
102
RTVSPost2010PropOp50
 70
     0
102
RTVSPost2010Prop51ColorIndex
 90
      256
102
RTVSPost2010Prop51ColorRGB
 90
-16777216
102
RTVSPost2010PropOp51
 70
     0
102
RTVSPost2010Prop52
140
1.0
102
RTVSPost2010PropOp52
 70
     0
102
RTVSPost2010Prop53
 90
        2
102
RTVSPost2010PropOp53
 70
     0
102
RTVSPost2010Prop54
  1
strokes_ogs.tif
102
RTVSPost2010PropOp54
 70
     0
102
RTVSPost2010Prop55
280
     0
102
RTVSPost2010PropOp55
 70
     0
102
RTVSPost2010Prop56
140
1.0
102
RTVSPost2010PropOp56
 70
     0
102
RTVSPost2010Prop57
140
1.0
102
RTVSPost2010PropOp57
 70
     0
  0
XRECORD
  5
48B
102
{ACAD_REACTORS
330
48A
102
}
330
48A
100
AcDbXrecord
280
     1
102
RTVSPropertyOp0
 70
     1
102
RTVSPropertyOp1
 70
     1
102
RTVSPropertyOp2
 70
     1
102
RTVSPropertyOp3
 70
     1
102
RTVSPropertyOp4
 70
     1
102
RTVSPropertyOp5
 70
     1
102
RTVSPropertyOp6
 70
     1
102
RTVSPropertyOp7
 70
     1
102
RTVSPropertyOp8
 70
     1
102
RTVSPropertyOp9
 70
     1
102
RTVSPropertyOp10
 70
     1
102
RTVSPropertyOp11
 70
     1
102
RTVSPropertyOp12
 70
     1
102
RTVSPropertyOp13
 70
     1
102
RTVSPropertyOp14
 70
     1
102
RTVSPropertyOp15
 70
     1
102
RTVSPropertyOp16
 70
     1
102
RTVSPropertyOp17
 70
     1
102
RTVSPropertyOp18
 70
     1
102
RTVSPropertyOp19
 70
     1
102
RTVSPropertyOp20
 70
     1
102
RTVSPropertyOp21
 70
     1
102
RTVSPropertyOp22
 70
     1
102
RTVSPropertyOp23
 70
     1
102
RTVSPropertyOp24
 70
     1
102
RTVSPropertyOp25
 70
     1
102
RTVSPropertyOp26
 70
     1
102
RTVSPropertyOp27
 70
     1
102
RTVSPropertyOp28
 70
     1
102
RTVSPropertyOp29
 70
     1
102
RTVSPropertyOp30
 70
     1
102
RTVSPropertyOp31
 70
     1
102
RTVSPropertyOp32
 70
     1
102
RTVSPropertyOp33
 70
     1
102
RTVSPropertyOp34
 70
     1
102
RTVSPropertyOp35
 70
     1
102
RTVSPropertyOp36
 70
     1
102
RTVSPropertyOp37
 70
     1
102
RTVSPropertyOp38
 70
     1
102
RTVSPropertyOp39
 70
     1
102
RTVSPropertyOp40
 70
     1
102
RTVSPropertyOp41
 70
     1
102
RTVSPropertyOp42
 70
     1
102
RTVSPropertyOp43
 70
     1
102
RTVSPropertyOp44
 70
     1
102
RTVSPropertyOp45
 70
     1
102
RTVSPropertyOp46
 70
     1
102
RTVSPropertyOp47
 70
     1
102
RTVSPropertyOp48
 70
     1
102
RTVSPropertyOp49
 70
     1
102
RTVSPropertyOp50
 70
     1
102
RTVSPropertyOp51
 70
     0
102
RTVSPropertyOp52
 70
     0
102
RTVSPropertyOp53
 70
     1
102
RTVSPropertyOp54
 70
     1
102
RTVSPropertyOp55
 70
     1
102
RTVSPropertyOp56
 70
     1
102
RTVSPropertyOp57
 70
     1
102
RTVSPost2010Prop28
280
     0
102
RTVSPost2010PropOp28
 70
     1
102
RTVSPost2010Prop29
280
     1
102
RTVSPost2010PropOp29
 70
     1
102
RTVSPost2010Prop30
280
     1
102
RTVSPost2010PropOp30
 70
     1
102
RTVSPost2010Prop31
280
     0
102
RTVSPost2010PropOp31
 70
     1
102
RTVSPost2010Prop32
280
     0
102
RTVSPost2010PropOp32
 70
     1
102
RTVSPost2010Prop33
280
     0
102
RTVSPost2010PropOp33
 70
     1
102
RTVSPost2010Prop34
280
     0
102
RTVSPost2010PropOp34
 70
     1
102
RTVSPost2010Prop35
280
     0
102
RTVSPost2010PropOp35
 70
     1
102
RTVSPost2010Prop36
280
     0
102
RTVSPost2010PropOp36
 70
     1
102
RTVSPost2010Prop37
 90
       50
102
RTVSPost2010PropOp37
 70
     1
102
RTVSPost2010Prop38
140
0.0
102
RTVSPost2010PropOp38
 70
     1
102
RTVSPost2010Prop39
140
1.0
102
RTVSPost2010PropOp39
 70
     1
102
RTVSPost2010Prop40
 90
        0
102
RTVSPost2010PropOp40
 70
     1
102
RTVSPost2010Prop41ColorIndex
 90
       18
102
RTVSPost2010Prop41ColorRGB
 90
        0
102
RTVSPost2010PropOp41
 70
     1
102
RTVSPost2010Prop42
 90
       50
102
RTVSPost2010PropOp42
 70
     1
102
RTVSPost2010Prop43
 90
        3
102
RTVSPost2010PropOp43
 70
     1
102
RTVSPost2010Prop44ColorIndex
 90
        5
102
RTVSPost2010Prop44ColorRGB
 90
      255
102
RTVSPost2010PropOp44
 70
     1
102
RTVSPost2010Prop45
280
     0
102
RTVSPost2010PropOp45
 70
     1
102
RTVSPost2010Prop46
 90
       50
102
RTVSPost2010PropOp46
 70
     1
102
RTVSPost2010Prop47
 90
       50
102
RTVSPost2010PropOp47
 70
     1
102
RTVSPost2010Prop48
 90
       50
102
RTVSPost2010PropOp48
 70
     1
102
RTVSPost2010Prop49
280
     0
102
RTVSPost2010PropOp49
 70
     1
102
RTVSPost2010Prop50
 90
       50
102
RTVSPost2010PropOp50
 70
     1
102
RTVSPost2010Prop51ColorIndex
 90
      256
102
RTVSPost2010Prop51ColorRGB
 90
-16777216
102
RTVSPost2010PropOp51
 70
     0
102
RTVSPost2010Prop52
140
1.0
102
RTVSPost2010PropOp52
 70
     0
102
RTVSPost2010Prop53
 90
        2
102
RTVSPost2010PropOp53
 70
     1
102
RTVSPost2010Prop54
  1
strokes_ogs.tif
102
RTVSPost2010PropOp54
 70
     1
102
RTVSPost2010Prop55
280
     0
102
RTVSPost2010PropOp55
 70
     1
102
RTVSPost2010Prop56
140
1.0
102
RTVSPost2010PropOp56
 70
     1
102
RTVSPost2010Prop57
140
1.0
102
RTVSPost2010PropOp57
 70
     1
  0
XRECORD
  5
493
102
{ACAD_REACTORS
330
492
102
}
330
492
100
AcDbXrecord
280
     1
102
RTVSPropertyOp0
 70
     0
102
RTVSPropertyOp1
 70
     0
102
RTVSPropertyOp2
 70
     0
102
RTVSPropertyOp3
 70
     0
102
RTVSPropertyOp4
 70
     0
102
RTVSPropertyOp5
 70
     0
102
RTVSPropertyOp6
 70
     0
102
RTVSPropertyOp7
 70
     0
102
RTVSPropertyOp8
 70
     0
102
RTVSPropertyOp9
 70
     0
102
RTVSPropertyOp10
 70
     0
102
RTVSPropertyOp11
 70
     0
102
RTVSPropertyOp12
 70
     0
102
RTVSPropertyOp13
 70
     0
102
RTVSPropertyOp14
 70
     2
102
RTVSPropertyOp15
 70
     0
102
RTVSPropertyOp16
 70
     0
102
RTVSPropertyOp17
 70
     0
102
RTVSPropertyOp18
 70
     0
102
RTVSPropertyOp19
 70
     0
102
RTVSPropertyOp20
 70
     0
102
RTVSPropertyOp21
 70
     0
102
RTVSPropertyOp22
 70
     0
102
RTVSPropertyOp23
 70
     0
102
RTVSPropertyOp24
 70
     0
102
RTVSPropertyOp25
 70
     0
102
RTVSPropertyOp26
 70
     0
102
RTVSPropertyOp27
 70
     0
102
RTVSPropertyOp28
 70
     0
102
RTVSPropertyOp29
 70
     0
102
RTVSPropertyOp30
 70
     0
102
RTVSPropertyOp31
 70
     0
102
RTVSPropertyOp32
 70
     0
102
RTVSPropertyOp33
 70
     0
102
RTVSPropertyOp34
 70
     0
102
RTVSPropertyOp35
 70
     0
102
RTVSPropertyOp36
 70
     0
102
RTVSPropertyOp37
 70
     0
102
RTVSPropertyOp38
 70
     0
102
RTVSPropertyOp39
 70
     0
102
RTVSPropertyOp40
 70
     0
102
RTVSPropertyOp41
 70
     0
102
RTVSPropertyOp42
 70
     0
102
RTVSPropertyOp43
 70
     0
102
RTVSPropertyOp44
 70
     0
102
RTVSPropertyOp45
 70
     0
102
RTVSPropertyOp46
 70
     0
102
RTVSPropertyOp47
 70
     0
102
RTVSPropertyOp48
 70
     0
102
RTVSPropertyOp49
 70
     0
102
RTVSPropertyOp50
 70
     0
102
RTVSPropertyOp51
 70
     0
102
RTVSPropertyOp52
 70
     0
102
RTVSPropertyOp53
 70
     0
102
RTVSPropertyOp54
 70
     0
102
RTVSPropertyOp55
 70
     0
102
RTVSPropertyOp56
 70
     0
102
RTVSPropertyOp57
 70
     0
102
RTVSPost2010Prop28
280
     0
102
RTVSPost2010PropOp28
 70
     0
102
RTVSPost2010Prop29
280
     1
102
RTVSPost2010PropOp29
 70
     0
102
RTVSPost2010Prop30
280
     1
102
RTVSPost2010PropOp30
 70
     0
102
RTVSPost2010Prop31
280
     0
102
RTVSPost2010PropOp31
 70
     0
102
RTVSPost2010Prop32
280
     0
102
RTVSPost2010PropOp32
 70
     0
102
RTVSPost2010Prop33
280
     0
102
RTVSPost2010PropOp33
 70
     0
102
RTVSPost2010Prop34
280
     0
102
RTVSPost2010PropOp34
 70
     0
102
RTVSPost2010Prop35
280
     0
102
RTVSPost2010PropOp35
 70
     0
102
RTVSPost2010Prop36
280
     0
102
RTVSPost2010PropOp36
 70
     0
102
RTVSPost2010Prop37
 90
       50
102
RTVSPost2010PropOp37
 70
     0
102
RTVSPost2010Prop38
140
0.0
102
RTVSPost2010PropOp38
 70
     0
102
RTVSPost2010Prop39
140
1.0
102
RTVSPost2010PropOp39
 70
     0
102
RTVSPost2010Prop40
 90
        0
102
RTVSPost2010PropOp40
 70
     0
102
RTVSPost2010Prop41ColorIndex
 90
       18
102
RTVSPost2010Prop41ColorRGB
 90
        0
102
RTVSPost2010PropOp41
 70
     0
102
RTVSPost2010Prop42
 90
       50
102
RTVSPost2010PropOp42
 70
     0
102
RTVSPost2010Prop43
 90
        3
102
RTVSPost2010PropOp43
 70
     0
102
RTVSPost2010Prop44ColorIndex
 90
        5
102
RTVSPost2010Prop44ColorRGB
 90
      255
102
RTVSPost2010PropOp44
 70
     0
102
RTVSPost2010Prop45
280
     0
102
RTVSPost2010PropOp45
 70
     0
102
RTVSPost2010Prop46
 90
       50
102
RTVSPost2010PropOp46
 70
     0
102
RTVSPost2010Prop47
 90
       50
102
RTVSPost2010PropOp47
 70
     0
102
RTVSPost2010Prop48
 90
       50
102
RTVSPost2010PropOp48
 70
     0
102
RTVSPost2010Prop49
280
     0
102
RTVSPost2010PropOp49
 70
     0
102
RTVSPost2010Prop50
 90
       50
102
RTVSPost2010PropOp50
 70
     0
102
RTVSPost2010Prop51ColorIndex
 90
      256
102
RTVSPost2010Prop51ColorRGB
 90
-16777216
102
RTVSPost2010PropOp51
 70
     0
102
RTVSPost2010Prop52
140
1.0
102
RTVSPost2010PropOp52
 70
     0
102
RTVSPost2010Prop53
 90
        2
102
RTVSPost2010PropOp53
 70
     0
102
RTVSPost2010Prop54
  1
strokes_ogs.tif
102
RTVSPost2010PropOp54
 70
     0
102
RTVSPost2010Prop55
280
     0
102
RTVSPost2010PropOp55
 70
     0
102
RTVSPost2010Prop56
140
1.0
102
RTVSPost2010PropOp56
 70
     0
102
RTVSPost2010Prop57
140
1.0
102
RTVSPost2010PropOp57
 70
     0
  0
XRECORD
  5
481
102
{ACAD_REACTORS
330
480
102
}
330
480
100
AcDbXrecord
280
     1
102
RTVSPropertyOp0
 70
     1
102
RTVSPropertyOp1
 70
     1
102
RTVSPropertyOp2
 70
     1
102
RTVSPropertyOp3
 70
     1
102
RTVSPropertyOp4
 70
     1
102
RTVSPropertyOp5
 70
     1
102
RTVSPropertyOp6
 70
     1
102
RTVSPropertyOp7
 70
     1
102
RTVSPropertyOp8
 70
     1
102
RTVSPropertyOp9
 70
     1
102
RTVSPropertyOp10
 70
     1
102
RTVSPropertyOp11
 70
     1
102
RTVSPropertyOp12
 70
     1
102
RTVSPropertyOp13
 70
     1
102
RTVSPropertyOp14
 70
     1
102
RTVSPropertyOp15
 70
     1
102
RTVSPropertyOp16
 70
     1
102
RTVSPropertyOp17
 70
     1
102
RTVSPropertyOp18
 70
     1
102
RTVSPropertyOp19
 70
     1
102
RTVSPropertyOp20
 70
     1
102
RTVSPropertyOp21
 70
     1
102
RTVSPropertyOp22
 70
     1
102
RTVSPropertyOp23
 70
     1
102
RTVSPropertyOp24
 70
     1
102
RTVSPropertyOp25
 70
     1
102
RTVSPropertyOp26
 70
     1
102
RTVSPropertyOp27
 70
     1
102
RTVSPropertyOp28
 70
     1
102
RTVSPropertyOp29
 70
     1
102
RTVSPropertyOp30
 70
     1
102
RTVSPropertyOp31
 70
     1
102
RTVSPropertyOp32
 70
     1
102
RTVSPropertyOp33
 70
     1
102
RTVSPropertyOp34
 70
     1
102
RTVSPropertyOp35
 70
     1
102
RTVSPropertyOp36
 70
     1
102
RTVSPropertyOp37
 70
     1
102
RTVSPropertyOp38
 70
     1
102
RTVSPropertyOp39
 70
     1
102
RTVSPropertyOp40
 70
     1
102
RTVSPropertyOp41
 70
     1
102
RTVSPropertyOp42
 70
     1
102
RTVSPropertyOp43
 70
     1
102
RTVSPropertyOp44
 70
     1
102
RTVSPropertyOp45
 70
     1
102
RTVSPropertyOp46
 70
     1
102
RTVSPropertyOp47
 70
     1
102
RTVSPropertyOp48
 70
     1
102
RTVSPropertyOp49
 70
     1
102
RTVSPropertyOp50
 70
     1
102
RTVSPropertyOp51
 70
     0
102
RTVSPropertyOp52
 70
     0
102
RTVSPropertyOp53
 70
     1
102
RTVSPropertyOp54
 70
     1
102
RTVSPropertyOp55
 70
     1
102
RTVSPropertyOp56
 70
     1
102
RTVSPropertyOp57
 70
     1
102
RTVSPost2010Prop28
280
     0
102
RTVSPost2010PropOp28
 70
     1
102
RTVSPost2010Prop29
280
     1
102
RTVSPost2010PropOp29
 70
     1
102
RTVSPost2010Prop30
280
     1
102
RTVSPost2010PropOp30
 70
     1
102
RTVSPost2010Prop31
280
     0
102
RTVSPost2010PropOp31
 70
     1
102
RTVSPost2010Prop32
280
     0
102
RTVSPost2010PropOp32
 70
     1
102
RTVSPost2010Prop33
280
     0
102
RTVSPost2010PropOp33
 70
     1
102
RTVSPost2010Prop34
280
     0
102
RTVSPost2010PropOp34
 70
     1
102
RTVSPost2010Prop35
280
     0
102
RTVSPost2010PropOp35
 70
     1
102
RTVSPost2010Prop36
280
     0
102
RTVSPost2010PropOp36
 70
     1
102
RTVSPost2010Prop37
 90
       50
102
RTVSPost2010PropOp37
 70
     1
102
RTVSPost2010Prop38
140
0.0
102
RTVSPost2010PropOp38
 70
     1
102
RTVSPost2010Prop39
140
1.0
102
RTVSPost2010PropOp39
 70
     1
102
RTVSPost2010Prop40
 90
        0
102
RTVSPost2010PropOp40
 70
     1
102
RTVSPost2010Prop41ColorIndex
 90
       18
102
RTVSPost2010Prop41ColorRGB
 90
        0
102
RTVSPost2010PropOp41
 70
     1
102
RTVSPost2010Prop42
 90
       50
102
RTVSPost2010PropOp42
 70
     1
102
RTVSPost2010Prop43
 90
        3
102
RTVSPost2010PropOp43
 70
     1
102
RTVSPost2010Prop44ColorIndex
 90
        5
102
RTVSPost2010Prop44ColorRGB
 90
      255
102
RTVSPost2010PropOp44
 70
     1
102
RTVSPost2010Prop45
280
     0
102
RTVSPost2010PropOp45
 70
     1
102
RTVSPost2010Prop46
 90
       50
102
RTVSPost2010PropOp46
 70
     1
102
RTVSPost2010Prop47
 90
       50
102
RTVSPost2010PropOp47
 70
     1
102
RTVSPost2010Prop48
 90
       50
102
RTVSPost2010PropOp48
 70
     1
102
RTVSPost2010Prop49
280
     0
102
RTVSPost2010PropOp49
 70
     1
102
RTVSPost2010Prop50
 90
       50
102
RTVSPost2010PropOp50
 70
     1
102
RTVSPost2010Prop51ColorIndex
 90
      256
102
RTVSPost2010Prop51ColorRGB
 90
-16777216
102
RTVSPost2010PropOp51
 70
     0
102
RTVSPost2010Prop52
140
1.0
102
RTVSPost2010PropOp52
 70
     0
102
RTVSPost2010Prop53
 90
        2
102
RTVSPost2010PropOp53
 70
     1
102
RTVSPost2010Prop54
  1
strokes_ogs.tif
102
RTVSPost2010PropOp54
 70
     1
102
RTVSPost2010Prop55
280
     0
102
RTVSPost2010PropOp55
 70
     1
102
RTVSPost2010Prop56
140
1.0
102
RTVSPost2010PropOp56
 70
     1
102
RTVSPost2010Prop57
140
1.0
102
RTVSPost2010PropOp57
 70
     1
  0
XRECORD
  5
49F
102
{ACAD_REACTORS
330
49E
102
}
330
49E
100
AcDbXrecord
280
     1
102
RTVSPropertyOp0
 70
     1
102
RTVSPropertyOp1
 70
     1
102
RTVSPropertyOp2
 70
     1
102
RTVSPropertyOp3
 70
     1
102
RTVSPropertyOp4
 70
     1
102
RTVSPropertyOp5
 70
     1
102
RTVSPropertyOp6
 70
     1
102
RTVSPropertyOp7
 70
     1
102
RTVSPropertyOp8
 70
     1
102
RTVSPropertyOp9
 70
     1
102
RTVSPropertyOp10
 70
     1
102
RTVSPropertyOp11
 70
     1
102
RTVSPropertyOp12
 70
     1
102
RTVSPropertyOp13
 70
     1
102
RTVSPropertyOp14
 70
     1
102
RTVSPropertyOp15
 70
     1
102
RTVSPropertyOp16
 70
     1
102
RTVSPropertyOp17
 70
     1
102
RTVSPropertyOp18
 70
     1
102
RTVSPropertyOp19
 70
     1
102
RTVSPropertyOp20
 70
     1
102
RTVSPropertyOp21
 70
     1
102
RTVSPropertyOp22
 70
     1
102
RTVSPropertyOp23
 70
     1
102
RTVSPropertyOp24
 70
     1
102
RTVSPropertyOp25
 70
     1
102
RTVSPropertyOp26
 70
     1
102
RTVSPropertyOp27
 70
     1
102
RTVSPropertyOp28
 70
     1
102
RTVSPropertyOp29
 70
     1
102
RTVSPropertyOp30
 70
     1
102
RTVSPropertyOp31
 70
     1
102
RTVSPropertyOp32
 70
     1
102
RTVSPropertyOp33
 70
     1
102
RTVSPropertyOp34
 70
     1
102
RTVSPropertyOp35
 70
     1
102
RTVSPropertyOp36
 70
     1
102
RTVSPropertyOp37
 70
     1
102
RTVSPropertyOp38
 70
     1
102
RTVSPropertyOp39
 70
     1
102
RTVSPropertyOp40
 70
     1
102
RTVSPropertyOp41
 70
     1
102
RTVSPropertyOp42
 70
     1
102
RTVSPropertyOp43
 70
     1
102
RTVSPropertyOp44
 70
     1
102
RTVSPropertyOp45
 70
     1
102
RTVSPropertyOp46
 70
     1
102
RTVSPropertyOp47
 70
     1
102
RTVSPropertyOp48
 70
     1
102
RTVSPropertyOp49
 70
     1
102
RTVSPropertyOp50
 70
     1
102
RTVSPropertyOp51
 70
     0
102
RTVSPropertyOp52
 70
     0
102
RTVSPropertyOp53
 70
     1
102
RTVSPropertyOp54
 70
     1
102
RTVSPropertyOp55
 70
     1
102
RTVSPropertyOp56
 70
     1
102
RTVSPropertyOp57
 70
     1
102
RTVSPost2010Prop28
280
     0
102
RTVSPost2010PropOp28
 70
     1
102
RTVSPost2010Prop29
280
     1
102
RTVSPost2010PropOp29
 70
     1
102
RTVSPost2010Prop30
280
     1
102
RTVSPost2010PropOp30
 70
     1
102
RTVSPost2010Prop31
280
     0
102
RTVSPost2010PropOp31
 70
     1
102
RTVSPost2010Prop32
280
     0
102
RTVSPost2010PropOp32
 70
     1
102
RTVSPost2010Prop33
280
     0
102
RTVSPost2010PropOp33
 70
     1
102
RTVSPost2010Prop34
280
     0
102
RTVSPost2010PropOp34
 70
     1
102
RTVSPost2010Prop35
280
     0
102
RTVSPost2010PropOp35
 70
     1
102
RTVSPost2010Prop36
280
     0
102
RTVSPost2010PropOp36
 70
     1
102
RTVSPost2010Prop37
 90
       50
102
RTVSPost2010PropOp37
 70
     1
102
RTVSPost2010Prop38
140
0.0
102
RTVSPost2010PropOp38
 70
     1
102
RTVSPost2010Prop39
140
1.0
102
RTVSPost2010PropOp39
 70
     1
102
RTVSPost2010Prop40
 90
        0
102
RTVSPost2010PropOp40
 70
     1
102
RTVSPost2010Prop41ColorIndex
 90
       18
102
RTVSPost2010Prop41ColorRGB
 90
        0
102
RTVSPost2010PropOp41
 70
     1
102
RTVSPost2010Prop42
 90
       50
102
RTVSPost2010PropOp42
 70
     1
102
RTVSPost2010Prop43
 90
        3
102
RTVSPost2010PropOp43
 70
     1
102
RTVSPost2010Prop44ColorIndex
 90
        5
102
RTVSPost2010Prop44ColorRGB
 90
      255
102
RTVSPost2010PropOp44
 70
     1
102
RTVSPost2010Prop45
280
     0
102
RTVSPost2010PropOp45
 70
     1
102
RTVSPost2010Prop46
 90
       50
102
RTVSPost2010PropOp46
 70
     1
102
RTVSPost2010Prop47
 90
       50
102
RTVSPost2010PropOp47
 70
     1
102
RTVSPost2010Prop48
 90
       50
102
RTVSPost2010PropOp48
 70
     1
102
RTVSPost2010Prop49
280
     0
102
RTVSPost2010PropOp49
 70
     1
102
RTVSPost2010Prop50
 90
       50
102
RTVSPost2010PropOp50
 70
     1
102
RTVSPost2010Prop51ColorIndex
 90
      256
102
RTVSPost2010Prop51ColorRGB
 90
-16777216
102
RTVSPost2010PropOp51
 70
     0
102
RTVSPost2010Prop52
140
1.0
102
RTVSPost2010PropOp52
 70
     0
102
RTVSPost2010Prop53
 90
        2
102
RTVSPost2010PropOp53
 70
     1
102
RTVSPost2010Prop54
  1
strokes_ogs.tif
102
RTVSPost2010PropOp54
 70
     1
102
RTVSPost2010Prop55
280
     0
102
RTVSPost2010PropOp55
 70
     1
102
RTVSPost2010Prop56
140
1.0
102
RTVSPost2010PropOp56
 70
     1
102
RTVSPost2010Prop57
140
1.0
102
RTVSPost2010PropOp57
 70
     1
  0
XRECORD
  5
49D
102
{ACAD_REACTORS
330
49C
102
}
330
49C
100
AcDbXrecord
280
     1
102
RTVSPropertyOp0
 70
     1
102
RTVSPropertyOp1
 70
     1
102
RTVSPropertyOp2
 70
     1
102
RTVSPropertyOp3
 70
     1
102
RTVSPropertyOp4
 70
     1
102
RTVSPropertyOp5
 70
     1
102
RTVSPropertyOp6
 70
     1
102
RTVSPropertyOp7
 70
     1
102
RTVSPropertyOp8
 70
     1
102
RTVSPropertyOp9
 70
     1
102
RTVSPropertyOp10
 70
     1
102
RTVSPropertyOp11
 70
     1
102
RTVSPropertyOp12
 70
     1
102
RTVSPropertyOp13
 70
     1
102
RTVSPropertyOp14
 70
     1
102
RTVSPropertyOp15
 70
     1
102
RTVSPropertyOp16
 70
     1
102
RTVSPropertyOp17
 70
     1
102
RTVSPropertyOp18
 70
     1
102
RTVSPropertyOp19
 70
     1
102
RTVSPropertyOp20
 70
     1
102
RTVSPropertyOp21
 70
     1
102
RTVSPropertyOp22
 70
     1
102
RTVSPropertyOp23
 70
     1
102
RTVSPropertyOp24
 70
     1
102
RTVSPropertyOp25
 70
     1
102
RTVSPropertyOp26
 70
     1
102
RTVSPropertyOp27
 70
     1
102
RTVSPropertyOp28
 70
     1
102
RTVSPropertyOp29
 70
     1
102
RTVSPropertyOp30
 70
     1
102
RTVSPropertyOp31
 70
     1
102
RTVSPropertyOp32
 70
     1
102
RTVSPropertyOp33
 70
     1
102
RTVSPropertyOp34
 70
     1
102
RTVSPropertyOp35
 70
     1
102
RTVSPropertyOp36
 70
     1
102
RTVSPropertyOp37
 70
     1
102
RTVSPropertyOp38
 70
     1
102
RTVSPropertyOp39
 70
     1
102
RTVSPropertyOp40
 70
     1
102
RTVSPropertyOp41
 70
     1
102
RTVSPropertyOp42
 70
     1
102
RTVSPropertyOp43
 70
     1
102
RTVSPropertyOp44
 70
     1
102
RTVSPropertyOp45
 70
     1
102
RTVSPropertyOp46
 70
     1
102
RTVSPropertyOp47
 70
     1
102
RTVSPropertyOp48
 70
     1
102
RTVSPropertyOp49
 70
     1
102
RTVSPropertyOp50
 70
     1
102
RTVSPropertyOp51
 70
     0
102
RTVSPropertyOp52
 70
     0
102
RTVSPropertyOp53
 70
     1
102
RTVSPropertyOp54
 70
     1
102
RTVSPropertyOp55
 70
     1
102
RTVSPropertyOp56
 70
     1
102
RTVSPropertyOp57
 70
     1
102
RTVSPost2010Prop28
280
     0
102
RTVSPost2010PropOp28
 70
     1
102
RTVSPost2010Prop29
280
     1
102
RTVSPost2010PropOp29
 70
     1
102
RTVSPost2010Prop30
280
     1
102
RTVSPost2010PropOp30
 70
     1
102
RTVSPost2010Prop31
280
     0
102
RTVSPost2010PropOp31
 70
     1
102
RTVSPost2010Prop32
280
     0
102
RTVSPost2010PropOp32
 70
     1
102
RTVSPost2010Prop33
280
     0
102
RTVSPost2010PropOp33
 70
     1
102
RTVSPost2010Prop34
280
     0
102
RTVSPost2010PropOp34
 70
     1
102
RTVSPost2010Prop35
280
     0
102
RTVSPost2010PropOp35
 70
     1
102
RTVSPost2010Prop36
280
     0
102
RTVSPost2010PropOp36
 70
     1
102
RTVSPost2010Prop37
 90
       50
102
RTVSPost2010PropOp37
 70
     1
102
RTVSPost2010Prop38
140
0.0
102
RTVSPost2010PropOp38
 70
     1
102
RTVSPost2010Prop39
140
1.0
102
RTVSPost2010PropOp39
 70
     1
102
RTVSPost2010Prop40
 90
        0
102
RTVSPost2010PropOp40
 70
     1
102
RTVSPost2010Prop41ColorIndex
 90
       18
102
RTVSPost2010Prop41ColorRGB
 90
        0
102
RTVSPost2010PropOp41
 70
     1
102
RTVSPost2010Prop42
 90
       50
102
RTVSPost2010PropOp42
 70
     1
102
RTVSPost2010Prop43
 90
        3
102
RTVSPost2010PropOp43
 70
     1
102
RTVSPost2010Prop44ColorIndex
 90
        5
102
RTVSPost2010Prop44ColorRGB
 90
      255
102
RTVSPost2010PropOp44
 70
     1
102
RTVSPost2010Prop45
280
     0
102
RTVSPost2010PropOp45
 70
     1
102
RTVSPost2010Prop46
 90
       50
102
RTVSPost2010PropOp46
 70
     1
102
RTVSPost2010Prop47
 90
       50
102
RTVSPost2010PropOp47
 70
     1
102
RTVSPost2010Prop48
 90
       50
102
RTVSPost2010PropOp48
 70
     1
102
RTVSPost2010Prop49
280
     0
102
RTVSPost2010PropOp49
 70
     1
102
RTVSPost2010Prop50
 90
       50
102
RTVSPost2010PropOp50
 70
     1
102
RTVSPost2010Prop51ColorIndex
 90
      256
102
RTVSPost2010Prop51ColorRGB
 90
-16777216
102
RTVSPost2010PropOp51
 70
     0
102
RTVSPost2010Prop52
140
1.0
102
RTVSPost2010PropOp52
 70
     0
102
RTVSPost2010Prop53
 90
        2
102
RTVSPost2010PropOp53
 70
     1
102
RTVSPost2010Prop54
  1
strokes_ogs.tif
102
RTVSPost2010PropOp54
 70
     1
102
RTVSPost2010Prop55
280
     0
102
RTVSPost2010PropOp55
 70
     1
102
RTVSPost2010Prop56
140
1.0
102
RTVSPost2010PropOp56
 70
     1
102
RTVSPost2010Prop57
140
1.0
102
RTVSPost2010PropOp57
 70
     1
  0
XRECORD
  5
497
102
{ACAD_REACTORS
330
496
102
}
330
496
100
AcDbXrecord
280
     1
102
RTVSPropertyOp0
 70
     1
102
RTVSPropertyOp1
 70
     1
102
RTVSPropertyOp2
 70
     1
102
RTVSPropertyOp3
 70
     1
102
RTVSPropertyOp4
 70
     1
102
RTVSPropertyOp5
 70
     1
102
RTVSPropertyOp6
 70
     1
102
RTVSPropertyOp7
 70
     1
102
RTVSPropertyOp8
 70
     1
102
RTVSPropertyOp9
 70
     1
102
RTVSPropertyOp10
 70
     1
102
RTVSPropertyOp11
 70
     1
102
RTVSPropertyOp12
 70
     1
102
RTVSPropertyOp13
 70
     1
102
RTVSPropertyOp14
 70
     1
102
RTVSPropertyOp15
 70
     1
102
RTVSPropertyOp16
 70
     1
102
RTVSPropertyOp17
 70
     1
102
RTVSPropertyOp18
 70
     1
102
RTVSPropertyOp19
 70
     1
102
RTVSPropertyOp20
 70
     1
102
RTVSPropertyOp21
 70
     1
102
RTVSPropertyOp22
 70
     1
102
RTVSPropertyOp23
 70
     1
102
RTVSPropertyOp24
 70
     1
102
RTVSPropertyOp25
 70
     1
102
RTVSPropertyOp26
 70
     1
102
RTVSPropertyOp27
 70
     1
102
RTVSPropertyOp28
 70
     1
102
RTVSPropertyOp29
 70
     1
102
RTVSPropertyOp30
 70
     1
102
RTVSPropertyOp31
 70
     1
102
RTVSPropertyOp32
 70
     1
102
RTVSPropertyOp33
 70
     1
102
RTVSPropertyOp34
 70
     1
102
RTVSPropertyOp35
 70
     1
102
RTVSPropertyOp36
 70
     1
102
RTVSPropertyOp37
 70
     1
102
RTVSPropertyOp38
 70
     1
102
RTVSPropertyOp39
 70
     1
102
RTVSPropertyOp40
 70
     1
102
RTVSPropertyOp41
 70
     1
102
RTVSPropertyOp42
 70
     1
102
RTVSPropertyOp43
 70
     1
102
RTVSPropertyOp44
 70
     1
102
RTVSPropertyOp45
 70
     1
102
RTVSPropertyOp46
 70
     1
102
RTVSPropertyOp47
 70
     1
102
RTVSPropertyOp48
 70
     1
102
RTVSPropertyOp49
 70
     1
102
RTVSPropertyOp50
 70
     1
102
RTVSPropertyOp51
 70
     0
102
RTVSPropertyOp52
 70
     0
102
RTVSPropertyOp53
 70
     1
102
RTVSPropertyOp54
 70
     1
102
RTVSPropertyOp55
 70
     1
102
RTVSPropertyOp56
 70
     1
102
RTVSPropertyOp57
 70
     1
102
RTVSPost2010Prop28
280
     0
102
RTVSPost2010PropOp28
 70
     1
102
RTVSPost2010Prop29
280
     1
102
RTVSPost2010PropOp29
 70
     1
102
RTVSPost2010Prop30
280
     1
102
RTVSPost2010PropOp30
 70
     1
102
RTVSPost2010Prop31
280
     0
102
RTVSPost2010PropOp31
 70
     1
102
RTVSPost2010Prop32
280
     0
102
RTVSPost2010PropOp32
 70
     1
102
RTVSPost2010Prop33
280
     0
102
RTVSPost2010PropOp33
 70
     1
102
RTVSPost2010Prop34
280
     0
102
RTVSPost2010PropOp34
 70
     1
102
RTVSPost2010Prop35
280
     0
102
RTVSPost2010PropOp35
 70
     1
102
RTVSPost2010Prop36
280
     0
102
RTVSPost2010PropOp36
 70
     1
102
RTVSPost2010Prop37
 90
       50
102
RTVSPost2010PropOp37
 70
     1
102
RTVSPost2010Prop38
140
0.0
102
RTVSPost2010PropOp38
 70
     1
102
RTVSPost2010Prop39
140
1.0
102
RTVSPost2010PropOp39
 70
     1
102
RTVSPost2010Prop40
 90
        0
102
RTVSPost2010PropOp40
 70
     1
102
RTVSPost2010Prop41ColorIndex
 90
       18
102
RTVSPost2010Prop41ColorRGB
 90
        0
102
RTVSPost2010PropOp41
 70
     1
102
RTVSPost2010Prop42
 90
       50
102
RTVSPost2010PropOp42
 70
     1
102
RTVSPost2010Prop43
 90
        3
102
RTVSPost2010PropOp43
 70
     1
102
RTVSPost2010Prop44ColorIndex
 90
        5
102
RTVSPost2010Prop44ColorRGB
 90
      255
102
RTVSPost2010PropOp44
 70
     1
102
RTVSPost2010Prop45
280
     0
102
RTVSPost2010PropOp45
 70
     1
102
RTVSPost2010Prop46
 90
       50
102
RTVSPost2010PropOp46
 70
     1
102
RTVSPost2010Prop47
 90
       50
102
RTVSPost2010PropOp47
 70
     1
102
RTVSPost2010Prop48
 90
       50
102
RTVSPost2010PropOp48
 70
     1
102
RTVSPost2010Prop49
280
     0
102
RTVSPost2010PropOp49
 70
     1
102
RTVSPost2010Prop50
 90
       50
102
RTVSPost2010PropOp50
 70
     1
102
RTVSPost2010Prop51ColorIndex
 90
      256
102
RTVSPost2010Prop51ColorRGB
 90
-16777216
102
RTVSPost2010PropOp51
 70
     0
102
RTVSPost2010Prop52
140
1.0
102
RTVSPost2010PropOp52
 70
     0
102
RTVSPost2010Prop53
 90
        2
102
RTVSPost2010PropOp53
 70
     1
102
RTVSPost2010Prop54
  1
strokes_ogs.tif
102
RTVSPost2010PropOp54
 70
     1
102
RTVSPost2010Prop55
280
     0
102
RTVSPost2010PropOp55
 70
     1
102
RTVSPost2010Prop56
140
1.0
102
RTVSPost2010PropOp56
 70
     1
102
RTVSPost2010Prop57
140
1.0
102
RTVSPost2010PropOp57
 70
     1
  0
XRECORD
  5
499
102
{ACAD_REACTORS
330
498
102
}
330
498
100
AcDbXrecord
280
     1
102
RTVSPropertyOp0
 70
     1
102
RTVSPropertyOp1
 70
     1
102
RTVSPropertyOp2
 70
     1
102
RTVSPropertyOp3
 70
     1
102
RTVSPropertyOp4
 70
     1
102
RTVSPropertyOp5
 70
     1
102
RTVSPropertyOp6
 70
     1
102
RTVSPropertyOp7
 70
     1
102
RTVSPropertyOp8
 70
     1
102
RTVSPropertyOp9
 70
     1
102
RTVSPropertyOp10
 70
     1
102
RTVSPropertyOp11
 70
     1
102
RTVSPropertyOp12
 70
     1
102
RTVSPropertyOp13
 70
     1
102
RTVSPropertyOp14
 70
     1
102
RTVSPropertyOp15
 70
     1
102
RTVSPropertyOp16
 70
     1
102
RTVSPropertyOp17
 70
     1
102
RTVSPropertyOp18
 70
     1
102
RTVSPropertyOp19
 70
     1
102
RTVSPropertyOp20
 70
     1
102
RTVSPropertyOp21
 70
     1
102
RTVSPropertyOp22
 70
     1
102
RTVSPropertyOp23
 70
     1
102
RTVSPropertyOp24
 70
     1
102
RTVSPropertyOp25
 70
     1
102
RTVSPropertyOp26
 70
     1
102
RTVSPropertyOp27
 70
     1
102
RTVSPropertyOp28
 70
     1
102
RTVSPropertyOp29
 70
     1
102
RTVSPropertyOp30
 70
     1
102
RTVSPropertyOp31
 70
     1
102
RTVSPropertyOp32
 70
     1
102
RTVSPropertyOp33
 70
     1
102
RTVSPropertyOp34
 70
     1
102
RTVSPropertyOp35
 70
     1
102
RTVSPropertyOp36
 70
     1
102
RTVSPropertyOp37
 70
     1
102
RTVSPropertyOp38
 70
     1
102
RTVSPropertyOp39
 70
     1
102
RTVSPropertyOp40
 70
     1
102
RTVSPropertyOp41
 70
     1
102
RTVSPropertyOp42
 70
     1
102
RTVSPropertyOp43
 70
     1
102
RTVSPropertyOp44
 70
     1
102
RTVSPropertyOp45
 70
     1
102
RTVSPropertyOp46
 70
     1
102
RTVSPropertyOp47
 70
     1
102
RTVSPropertyOp48
 70
     1
102
RTVSPropertyOp49
 70
     1
102
RTVSPropertyOp50
 70
     1
102
RTVSPropertyOp51
 70
     0
102
RTVSPropertyOp52
 70
     0
102
RTVSPropertyOp53
 70
     1
102
RTVSPropertyOp54
 70
     1
102
RTVSPropertyOp55
 70
     1
102
RTVSPropertyOp56
 70
     1
102
RTVSPropertyOp57
 70
     1
102
RTVSPost2010Prop28
280
     0
102
RTVSPost2010PropOp28
 70
     1
102
RTVSPost2010Prop29
280
     1
102
RTVSPost2010PropOp29
 70
     1
102
RTVSPost2010Prop30
280
     1
102
RTVSPost2010PropOp30
 70
     1
102
RTVSPost2010Prop31
280
     0
102
RTVSPost2010PropOp31
 70
     1
102
RTVSPost2010Prop32
280
     0
102
RTVSPost2010PropOp32
 70
     1
102
RTVSPost2010Prop33
280
     0
102
RTVSPost2010PropOp33
 70
     1
102
RTVSPost2010Prop34
280
     0
102
RTVSPost2010PropOp34
 70
     1
102
RTVSPost2010Prop35
280
     0
102
RTVSPost2010PropOp35
 70
     1
102
RTVSPost2010Prop36
280
     0
102
RTVSPost2010PropOp36
 70
     1
102
RTVSPost2010Prop37
 90
       50
102
RTVSPost2010PropOp37
 70
     1
102
RTVSPost2010Prop38
140
0.0
102
RTVSPost2010PropOp38
 70
     1
102
RTVSPost2010Prop39
140
1.0
102
RTVSPost2010PropOp39
 70
     1
102
RTVSPost2010Prop40
 90
        0
102
RTVSPost2010PropOp40
 70
     1
102
RTVSPost2010Prop41ColorIndex
 90
       18
102
RTVSPost2010Prop41ColorRGB
 90
        0
102
RTVSPost2010PropOp41
 70
     1
102
RTVSPost2010Prop42
 90
       50
102
RTVSPost2010PropOp42
 70
     1
102
RTVSPost2010Prop43
 90
        3
102
RTVSPost2010PropOp43
 70
     1
102
RTVSPost2010Prop44ColorIndex
 90
        5
102
RTVSPost2010Prop44ColorRGB
 90
      255
102
RTVSPost2010PropOp44
 70
     1
102
RTVSPost2010Prop45
280
     0
102
RTVSPost2010PropOp45
 70
     1
102
RTVSPost2010Prop46
 90
       50
102
RTVSPost2010PropOp46
 70
     1
102
RTVSPost2010Prop47
 90
       50
102
RTVSPost2010PropOp47
 70
     1
102
RTVSPost2010Prop48
 90
       50
102
RTVSPost2010PropOp48
 70
     1
102
RTVSPost2010Prop49
280
     0
102
RTVSPost2010PropOp49
 70
     1
102
RTVSPost2010Prop50
 90
       50
102
RTVSPost2010PropOp50
 70
     1
102
RTVSPost2010Prop51ColorIndex
 90
      256
102
RTVSPost2010Prop51ColorRGB
 90
-16777216
102
RTVSPost2010PropOp51
 70
     0
102
RTVSPost2010Prop52
140
1.0
102
RTVSPost2010PropOp52
 70
     0
102
RTVSPost2010Prop53
 90
        2
102
RTVSPost2010PropOp53
 70
     1
102
RTVSPost2010Prop54
  1
strokes_ogs.tif
102
RTVSPost2010PropOp54
 70
     1
102
RTVSPost2010Prop55
280
     0
102
RTVSPost2010PropOp55
 70
     1
102
RTVSPost2010Prop56
140
1.0
102
RTVSPost2010PropOp56
 70
     1
102
RTVSPost2010Prop57
140
1.0
102
RTVSPost2010PropOp57
 70
     1
  0
XRECORD
  5
489
102
{ACAD_REACTORS
330
488
102
}
330
488
100
AcDbXrecord
280
     1
102
RTVSPropertyOp0
 70
     1
102
RTVSPropertyOp1
 70
     1
102
RTVSPropertyOp2
 70
     1
102
RTVSPropertyOp3
 70
     1
102
RTVSPropertyOp4
 70
     1
102
RTVSPropertyOp5
 70
     1
102
RTVSPropertyOp6
 70
     1
102
RTVSPropertyOp7
 70
     1
102
RTVSPropertyOp8
 70
     1
102
RTVSPropertyOp9
 70
     1
102
RTVSPropertyOp10
 70
     1
102
RTVSPropertyOp11
 70
     1
102
RTVSPropertyOp12
 70
     1
102
RTVSPropertyOp13
 70
     1
102
RTVSPropertyOp14
 70
     1
102
RTVSPropertyOp15
 70
     1
102
RTVSPropertyOp16
 70
     1
102
RTVSPropertyOp17
 70
     1
102
RTVSPropertyOp18
 70
     1
102
RTVSPropertyOp19
 70
     1
102
RTVSPropertyOp20
 70
     1
102
RTVSPropertyOp21
 70
     1
102
RTVSPropertyOp22
 70
     1
102
RTVSPropertyOp23
 70
     1
102
RTVSPropertyOp24
 70
     1
102
RTVSPropertyOp25
 70
     1
102
RTVSPropertyOp26
 70
     1
102
RTVSPropertyOp27
 70
     1
102
RTVSPropertyOp28
 70
     1
102
RTVSPropertyOp29
 70
     1
102
RTVSPropertyOp30
 70
     1
102
RTVSPropertyOp31
 70
     1
102
RTVSPropertyOp32
 70
     1
102
RTVSPropertyOp33
 70
     1
102
RTVSPropertyOp34
 70
     1
102
RTVSPropertyOp35
 70
     1
102
RTVSPropertyOp36
 70
     1
102
RTVSPropertyOp37
 70
     1
102
RTVSPropertyOp38
 70
     1
102
RTVSPropertyOp39
 70
     1
102
RTVSPropertyOp40
 70
     1
102
RTVSPropertyOp41
 70
     1
102
RTVSPropertyOp42
 70
     1
102
RTVSPropertyOp43
 70
     1
102
RTVSPropertyOp44
 70
     1
102
RTVSPropertyOp45
 70
     1
102
RTVSPropertyOp46
 70
     1
102
RTVSPropertyOp47
 70
     1
102
RTVSPropertyOp48
 70
     1
102
RTVSPropertyOp49
 70
     1
102
RTVSPropertyOp50
 70
     1
102
RTVSPropertyOp51
 70
     0
102
RTVSPropertyOp52
 70
     0
102
RTVSPropertyOp53
 70
     1
102
RTVSPropertyOp54
 70
     1
102
RTVSPropertyOp55
 70
     1
102
RTVSPropertyOp56
 70
     1
102
RTVSPropertyOp57
 70
     1
102
RTVSPost2010Prop28
280
     0
102
RTVSPost2010PropOp28
 70
     1
102
RTVSPost2010Prop29
280
     1
102
RTVSPost2010PropOp29
 70
     1
102
RTVSPost2010Prop30
280
     1
102
RTVSPost2010PropOp30
 70
     1
102
RTVSPost2010Prop31
280
     0
102
RTVSPost2010PropOp31
 70
     1
102
RTVSPost2010Prop32
280
     0
102
RTVSPost2010PropOp32
 70
     1
102
RTVSPost2010Prop33
280
     0
102
RTVSPost2010PropOp33
 70
     1
102
RTVSPost2010Prop34
280
     0
102
RTVSPost2010PropOp34
 70
     1
102
RTVSPost2010Prop35
280
     0
102
RTVSPost2010PropOp35
 70
     1
102
RTVSPost2010Prop36
280
     0
102
RTVSPost2010PropOp36
 70
     1
102
RTVSPost2010Prop37
 90
       50
102
RTVSPost2010PropOp37
 70
     1
102
RTVSPost2010Prop38
140
0.0
102
RTVSPost2010PropOp38
 70
     1
102
RTVSPost2010Prop39
140
1.0
102
RTVSPost2010PropOp39
 70
     1
102
RTVSPost2010Prop40
 90
        0
102
RTVSPost2010PropOp40
 70
     1
102
RTVSPost2010Prop41ColorIndex
 90
       18
102
RTVSPost2010Prop41ColorRGB
 90
        0
102
RTVSPost2010PropOp41
 70
     1
102
RTVSPost2010Prop42
 90
       50
102
RTVSPost2010PropOp42
 70
     1
102
RTVSPost2010Prop43
 90
        3
102
RTVSPost2010PropOp43
 70
     1
102
RTVSPost2010Prop44ColorIndex
 90
        5
102
RTVSPost2010Prop44ColorRGB
 90
      255
102
RTVSPost2010PropOp44
 70
     1
102
RTVSPost2010Prop45
280
     0
102
RTVSPost2010PropOp45
 70
     1
102
RTVSPost2010Prop46
 90
       50
102
RTVSPost2010PropOp46
 70
     1
102
RTVSPost2010Prop47
 90
       50
102
RTVSPost2010PropOp47
 70
     1
102
RTVSPost2010Prop48
 90
       50
102
RTVSPost2010PropOp48
 70
     1
102
RTVSPost2010Prop49
280
     0
102
RTVSPost2010PropOp49
 70
     1
102
RTVSPost2010Prop50
 90
       50
102
RTVSPost2010PropOp50
 70
     1
102
RTVSPost2010Prop51ColorIndex
 90
      256
102
RTVSPost2010Prop51ColorRGB
 90
-16777216
102
RTVSPost2010PropOp51
 70
     0
102
RTVSPost2010Prop52
140
1.0
102
RTVSPost2010PropOp52
 70
     0
102
RTVSPost2010Prop53
 90
        2
102
RTVSPost2010PropOp53
 70
     1
102
RTVSPost2010Prop54
  1
strokes_ogs.tif
102
RTVSPost2010PropOp54
 70
     1
102
RTVSPost2010Prop55
280
     0
102
RTVSPost2010PropOp55
 70
     1
102
RTVSPost2010Prop56
140
1.0
102
RTVSPost2010PropOp56
 70
     1
102
RTVSPost2010Prop57
140
1.0
102
RTVSPost2010PropOp57
 70
     1
  0
XRECORD
  5
47B
102
{ACAD_REACTORS
330
47A
102
}
330
47A
100
AcDbXrecord
280
     1
102
RTVSPropertyOp0
 70
     1
102
RTVSPropertyOp1
 70
     1
102
RTVSPropertyOp2
 70
     1
102
RTVSPropertyOp3
 70
     1
102
RTVSPropertyOp4
 70
     1
102
RTVSPropertyOp5
 70
     1
102
RTVSPropertyOp6
 70
     1
102
RTVSPropertyOp7
 70
     1
102
RTVSPropertyOp8
 70
     1
102
RTVSPropertyOp9
 70
     1
102
RTVSPropertyOp10
 70
     1
102
RTVSPropertyOp11
 70
     1
102
RTVSPropertyOp12
 70
     1
102
RTVSPropertyOp13
 70
     1
102
RTVSPropertyOp14
 70
     1
102
RTVSPropertyOp15
 70
     1
102
RTVSPropertyOp16
 70
     1
102
RTVSPropertyOp17
 70
     1
102
RTVSPropertyOp18
 70
     1
102
RTVSPropertyOp19
 70
     1
102
RTVSPropertyOp20
 70
     1
102
RTVSPropertyOp21
 70
     1
102
RTVSPropertyOp22
 70
     1
102
RTVSPropertyOp23
 70
     1
102
RTVSPropertyOp24
 70
     1
102
RTVSPropertyOp25
 70
     1
102
RTVSPropertyOp26
 70
     1
102
RTVSPropertyOp27
 70
     1
102
RTVSPropertyOp28
 70
     1
102
RTVSPropertyOp29
 70
     1
102
RTVSPropertyOp30
 70
     1
102
RTVSPropertyOp31
 70
     1
102
RTVSPropertyOp32
 70
     1
102
RTVSPropertyOp33
 70
     1
102
RTVSPropertyOp34
 70
     1
102
RTVSPropertyOp35
 70
     1
102
RTVSPropertyOp36
 70
     1
102
RTVSPropertyOp37
 70
     1
102
RTVSPropertyOp38
 70
     1
102
RTVSPropertyOp39
 70
     1
102
RTVSPropertyOp40
 70
     1
102
RTVSPropertyOp41
 70
     1
102
RTVSPropertyOp42
 70
     1
102
RTVSPropertyOp43
 70
     1
102
RTVSPropertyOp44
 70
     1
102
RTVSPropertyOp45
 70
     1
102
RTVSPropertyOp46
 70
     1
102
RTVSPropertyOp47
 70
     1
102
RTVSPropertyOp48
 70
     1
102
RTVSPropertyOp49
 70
     1
102
RTVSPropertyOp50
 70
     1
102
RTVSPropertyOp51
 70
     0
102
RTVSPropertyOp52
 70
     0
102
RTVSPropertyOp53
 70
     1
102
RTVSPropertyOp54
 70
     1
102
RTVSPropertyOp55
 70
     1
102
RTVSPropertyOp56
 70
     1
102
RTVSPropertyOp57
 70
     1
102
RTVSPost2010Prop28
280
     0
102
RTVSPost2010PropOp28
 70
     1
102
RTVSPost2010Prop29
280
     1
102
RTVSPost2010PropOp29
 70
     1
102
RTVSPost2010Prop30
280
     1
102
RTVSPost2010PropOp30
 70
     1
102
RTVSPost2010Prop31
280
     0
102
RTVSPost2010PropOp31
 70
     1
102
RTVSPost2010Prop32
280
     0
102
RTVSPost2010PropOp32
 70
     1
102
RTVSPost2010Prop33
280
     0
102
RTVSPost2010PropOp33
 70
     1
102
RTVSPost2010Prop34
280
     0
102
RTVSPost2010PropOp34
 70
     1
102
RTVSPost2010Prop35
280
     0
102
RTVSPost2010PropOp35
 70
     1
102
RTVSPost2010Prop36
280
     0
102
RTVSPost2010PropOp36
 70
     1
102
RTVSPost2010Prop37
 90
       50
102
RTVSPost2010PropOp37
 70
     1
102
RTVSPost2010Prop38
140
0.0
102
RTVSPost2010PropOp38
 70
     1
102
RTVSPost2010Prop39
140
1.0
102
RTVSPost2010PropOp39
 70
     1
102
RTVSPost2010Prop40
 90
        0
102
RTVSPost2010PropOp40
 70
     1
102
RTVSPost2010Prop41ColorIndex
 90
       18
102
RTVSPost2010Prop41ColorRGB
 90
        0
102
RTVSPost2010PropOp41
 70
     1
102
RTVSPost2010Prop42
 90
       50
102
RTVSPost2010PropOp42
 70
     1
102
RTVSPost2010Prop43
 90
        3
102
RTVSPost2010PropOp43
 70
     1
102
RTVSPost2010Prop44ColorIndex
 90
        5
102
RTVSPost2010Prop44ColorRGB
 90
      255
102
RTVSPost2010PropOp44
 70
     1
102
RTVSPost2010Prop45
280
     0
102
RTVSPost2010PropOp45
 70
     1
102
RTVSPost2010Prop46
 90
       50
102
RTVSPost2010PropOp46
 70
     1
102
RTVSPost2010Prop47
 90
       50
102
RTVSPost2010PropOp47
 70
     1
102
RTVSPost2010Prop48
 90
       50
102
RTVSPost2010PropOp48
 70
     1
102
RTVSPost2010Prop49
280
     0
102
RTVSPost2010PropOp49
 70
     1
102
RTVSPost2010Prop50
 90
       50
102
RTVSPost2010PropOp50
 70
     1
102
RTVSPost2010Prop51ColorIndex
 90
      256
102
RTVSPost2010Prop51ColorRGB
 90
-16777216
102
RTVSPost2010PropOp51
 70
     0
102
RTVSPost2010Prop52
140
1.0
102
RTVSPost2010PropOp52
 70
     0
102
RTVSPost2010Prop53
 90
        2
102
RTVSPost2010PropOp53
 70
     1
102
RTVSPost2010Prop54
  1
strokes_ogs.tif
102
RTVSPost2010PropOp54
 70
     1
102
RTVSPost2010Prop55
280
     0
102
RTVSPost2010PropOp55
 70
     1
102
RTVSPost2010Prop56
140
1.0
102
RTVSPost2010PropOp56
 70
     1
102
RTVSPost2010Prop57
140
1.0
102
RTVSPost2010PropOp57
 70
     1
  0
XRECORD
  5
49B
102
{ACAD_REACTORS
330
49A
102
}
330
49A
100
AcDbXrecord
280
     1
102
RTVSPropertyOp0
 70
     1
102
RTVSPropertyOp1
 70
     1
102
RTVSPropertyOp2
 70
     1
102
RTVSPropertyOp3
 70
     1
102
RTVSPropertyOp4
 70
     1
102
RTVSPropertyOp5
 70
     1
102
RTVSPropertyOp6
 70
     1
102
RTVSPropertyOp7
 70
     1
102
RTVSPropertyOp8
 70
     1
102
RTVSPropertyOp9
 70
     1
102
RTVSPropertyOp10
 70
     1
102
RTVSPropertyOp11
 70
     1
102
RTVSPropertyOp12
 70
     1
102
RTVSPropertyOp13
 70
     1
102
RTVSPropertyOp14
 70
     1
102
RTVSPropertyOp15
 70
     1
102
RTVSPropertyOp16
 70
     1
102
RTVSPropertyOp17
 70
     1
102
RTVSPropertyOp18
 70
     1
102
RTVSPropertyOp19
 70
     1
102
RTVSPropertyOp20
 70
     1
102
RTVSPropertyOp21
 70
     1
102
RTVSPropertyOp22
 70
     1
102
RTVSPropertyOp23
 70
     1
102
RTVSPropertyOp24
 70
     1
102
RTVSPropertyOp25
 70
     1
102
RTVSPropertyOp26
 70
     1
102
RTVSPropertyOp27
 70
     1
102
RTVSPropertyOp28
 70
     1
102
RTVSPropertyOp29
 70
     1
102
RTVSPropertyOp30
 70
     1
102
RTVSPropertyOp31
 70
     1
102
RTVSPropertyOp32
 70
     1
102
RTVSPropertyOp33
 70
     1
102
RTVSPropertyOp34
 70
     1
102
RTVSPropertyOp35
 70
     1
102
RTVSPropertyOp36
 70
     1
102
RTVSPropertyOp37
 70
     1
102
RTVSPropertyOp38
 70
     1
102
RTVSPropertyOp39
 70
     1
102
RTVSPropertyOp40
 70
     1
102
RTVSPropertyOp41
 70
     1
102
RTVSPropertyOp42
 70
     1
102
RTVSPropertyOp43
 70
     1
102
RTVSPropertyOp44
 70
     1
102
RTVSPropertyOp45
 70
     1
102
RTVSPropertyOp46
 70
     1
102
RTVSPropertyOp47
 70
     1
102
RTVSPropertyOp48
 70
     1
102
RTVSPropertyOp49
 70
     1
102
RTVSPropertyOp50
 70
     1
102
RTVSPropertyOp51
 70
     0
102
RTVSPropertyOp52
 70
     0
102
RTVSPropertyOp53
 70
     1
102
RTVSPropertyOp54
 70
     1
102
RTVSPropertyOp55
 70
     1
102
RTVSPropertyOp56
 70
     1
102
RTVSPropertyOp57
 70
     1
102
RTVSPost2010Prop28
280
     0
102
RTVSPost2010PropOp28
 70
     1
102
RTVSPost2010Prop29
280
     1
102
RTVSPost2010PropOp29
 70
     1
102
RTVSPost2010Prop30
280
     1
102
RTVSPost2010PropOp30
 70
     1
102
RTVSPost2010Prop31
280
     0
102
RTVSPost2010PropOp31
 70
     1
102
RTVSPost2010Prop32
280
     0
102
RTVSPost2010PropOp32
 70
     1
102
RTVSPost2010Prop33
280
     0
102
RTVSPost2010PropOp33
 70
     1
102
RTVSPost2010Prop34
280
     0
102
RTVSPost2010PropOp34
 70
     1
102
RTVSPost2010Prop35
280
     0
102
RTVSPost2010PropOp35
 70
     1
102
RTVSPost2010Prop36
280
     0
102
RTVSPost2010PropOp36
 70
     1
102
RTVSPost2010Prop37
 90
       50
102
RTVSPost2010PropOp37
 70
     1
102
RTVSPost2010Prop38
140
0.0
102
RTVSPost2010PropOp38
 70
     1
102
RTVSPost2010Prop39
140
1.0
102
RTVSPost2010PropOp39
 70
     1
102
RTVSPost2010Prop40
 90
        0
102
RTVSPost2010PropOp40
 70
     1
102
RTVSPost2010Prop41ColorIndex
 90
       18
102
RTVSPost2010Prop41ColorRGB
 90
        0
102
RTVSPost2010PropOp41
 70
     1
102
RTVSPost2010Prop42
 90
       50
102
RTVSPost2010PropOp42
 70
     1
102
RTVSPost2010Prop43
 90
        3
102
RTVSPost2010PropOp43
 70
     1
102
RTVSPost2010Prop44ColorIndex
 90
        5
102
RTVSPost2010Prop44ColorRGB
 90
      255
102
RTVSPost2010PropOp44
 70
     1
102
RTVSPost2010Prop45
280
     0
102
RTVSPost2010PropOp45
 70
     1
102
RTVSPost2010Prop46
 90
       50
102
RTVSPost2010PropOp46
 70
     1
102
RTVSPost2010Prop47
 90
       50
102
RTVSPost2010PropOp47
 70
     1
102
RTVSPost2010Prop48
 90
       50
102
RTVSPost2010PropOp48
 70
     1
102
RTVSPost2010Prop49
280
     0
102
RTVSPost2010PropOp49
 70
     1
102
RTVSPost2010Prop50
 90
       50
102
RTVSPost2010PropOp50
 70
     1
102
RTVSPost2010Prop51ColorIndex
 90
      256
102
RTVSPost2010Prop51ColorRGB
 90
-16777216
102
RTVSPost2010PropOp51
 70
     0
102
RTVSPost2010Prop52
140
1.0
102
RTVSPost2010PropOp52
 70
     0
102
RTVSPost2010Prop53
 90
        2
102
RTVSPost2010PropOp53
 70
     1
102
RTVSPost2010Prop54
  1
strokes_ogs.tif
102
RTVSPost2010PropOp54
 70
     1
102
RTVSPost2010Prop55
280
     0
102
RTVSPost2010PropOp55
 70
     1
102
RTVSPost2010Prop56
140
1.0
102
RTVSPost2010PropOp56
 70
     1
102
RTVSPost2010Prop57
140
1.0
102
RTVSPost2010PropOp57
 70
     1
  0
ENDSEC
  0
EOF
